Oops, an error
Loading. Please wait.

In Dreams tab

version 1
version 1

Whole song

Interactive

by Dio
178 views 1 this week
no commentswrite comment
1 2 3 4 5
3 more votes to show rating
add to favorites
×
Save as Personal and add changes to this tab that will be seen only by you. Learn more ›
×
You can save this tab as Personal to edit and correct it or add notes. All changes will be seen only by you. Learn more »
launch autoscroll
font size
0
reset
how to read this tab
guitar tuner
edit
Autoscroll
slow
fast
+/-
esc
set tempo
stop
[Intro]

e|----------|
B|----------|
G|----------|
D|-5--7--10-|
A|-3--5--8--|
E|----------|

e|---------------------------------------------------------------------|
B|---------------------------------------------------------------------|
G|---------------------------------------------------------------------|
D|----9-9--7-7-7/9-9-9------------------9-9--7-7-7/9-9-9---------------|
A|----7-7--5-5-5/7-7-7--2-4-5-4-5-4~----7-7--5-5-5/7-7-7--2-4-5-7-5-4~-|
E|--0-------------------0-2-3-2-3-2~--0-------------------0-2-3-5-3-2~-|
  |PM|                 |     PM        |                 |     PM     |

e|-----------------------------------------------------------------------------|
B|-----------------------------------------------------------------------------|
G|-----------------------------------------------------------------------------|
D|----9-9--7-7-7/9-9-9------------------9-9--7-7-7/9-9-9-----------------------|
A|----7-7--5-5-5/7-7-7--2-4-5-4-5-4~----7-7--5-5-5/7-7-7--2-4-5-7-5-4-5-4-3--5-|
E|--0-------------------0-2-3-2-3-2~--0-------------------0-2-3-5-3-2-3-2-1--5-|
  |PM|                 |     PM        |                 |       PM        |


[Verse]

e|-----------------------------------------------------------|
B|-----------------------------------------------------------|
G|-----------------------------------------------------------|
D|-9/-4-7-9-------9/-4-7-9-4-3---------------------------5-4-|
A|-7/-2-5-7-2-2-2-7/-2-5-7-2-1-2-2-2-2-2-2-2-2-2-2-2-4-5-3-2-|
E|----------0-0-0--------------0-0-0-0-0-0-0-0-0-0-0-2-3-----|
           | PM  |            |          PM             |

e|-------------------------------------------------------|
B|-------------------------------------------------------|
G|-------------------------------------------------------|
D|-9/-4-7-9-------9/-4-7-9-4-3---------------------------|
A|-7/-2-5-7-2-2-2-7/-2-5-7-2-1-2-2-2-2-2-2-2-2-2-2-2-4-5-|
E|----------0-0-0--------------0-0-0-0-0-0-0-0-0-0-0-2-3-|
           |  PM |            |            PM           |


[Chorus 1]

e|----------------------------------------|
B|----------------------------------------|
G|----------------------------------------|
D|----------------------------------------|
A|-5-4--5-4--5-4--5-4--5-4--5-4--5-4--5-4-|
E|-3-2--3-2--3-2--3-2--3-2--3-2--3-2--3-2-|
  |               PM                     |

e|----------------------------------------------------------------------------|
B|----------------------------------------------------------------------------|
G|----------------------------------------------------------------------------|
D|----9-9--7-7-7/9-9-9------------------9-9--7-7-7/9-9-9----------------------|
A|----7-7--5-5-5/7-7-7--2-4-5-4-5-4~----7-7--5-5-5/7-7-7--2-4-5-7-5/4-3-------|
E|--0-------------------0-2-3-2-3-2~--0-------------------0-2-3-5-3/2-1-------|
  |PM|                 |      PM       |                 |     PM      |


[Verse]

e|-----------------------------------------------------------|
B|-----------------------------------------------------------|
G|-----------------------------------------------------------|
D|-9/-4-7-9-------9/-4-7-9-4-3---------------------------5-4-|
A|-7/-2-5-7-2-2-2-7/-2-5-7-2-1-2-2-2-2-2-2-2-2-2-2-2-4-5-3-2-|
E|----------0-0-0--------------0-0-0-0-0-0-0-0-0-0-0-2-3-----|
           | PM  |            |          PM             |

e|-------------------------------------------------------|
B|-------------------------------------------------------|
G|-------------------------------------------------------|
D|-9/-4-7-9-------9/-4-7-9-4-3---------------------------|
A|-7/-2-5-7-2-2-2-7/-2-5-7-2-1-2-2-2-2-2-2-2-2-2-2-2-4-5-|
E|----------0-0-0--------------0-0-0-0-0-0-0-0-0-0-0-2-3-|
           |  PM |            |            PM           |


[Chorus 2]

e|----------------------------------------|
B|----------------------------------------|
G|----------------------------------------|
D|----------------------------------------|
A|-5-4--5-4--5-4--5-4--5-4--5-4--5-4--5-4-|
E|-3-2--3-2--3-2--3-2--3-2--3-2--3-2--3-2-|
  |               PM                     |


e|------------------------------------------------------------------------|
B|------------------------------------------------------------------------|
G|------------------------------------------------------------------------|
D|----9-9--7-7-7/9-9-9------------------9-9--7-7-7/9-9-9----9-9-7-7-9-----|
A|----7-7--5-5-5/7-7-7--2-4-5-4-5-4~----7-7--5-5-5/7-7-7----7-7-5-5-7-5-4-|
E|--0-------------------0-2-3-2-3-2~--0-------------------0-----------3-2-|
  |PM|                 |      PM       |                


[Bridge] 

(This is probably wrong in a few places but its the gist of it)

e|----------------------------------------------------------------|
B|----------------------------------------------------------------|
G|----------------------------------------------------------------|
7|---------------------------------7--7-7-7-7-7-7-7-7-7-7-7-7-7---|
A|-3-3-3-3-3-3-3-3-3-3-3-3-3-3-3---5--5-5-5-5-5-5-5-5-5-5-5-5-5-3-|
E|-1-1-1-1-1-1-1-1-1-1-1-1-1-1-1-0------------------------------1-|
  |                              PM                             |

e|------------------------------------------------------------------------------------|
B|------------------------------------------------------------------------------------|
G|---2-5-4-2---2-5-4-2----------------------------------------------------------------|
D|---------------------------------------------------------7--7-7-7-7-7-7-7-7-7-7-7-7-|
A|-0---------0----------------5--3-3-3-3--5--3-3-3-3-3-3-2-5--5-5-5-5-5-5-5-5-5-5-5-5-|
E|----------------------------3--1-1-1-1--3--1-1-1-1-1-1-0----------------------------|
                                                |                PM                  |

e|--------------------------------|
B|--------------------------------|
G|--------------------------------|
D|----4-4-4-4-4-4-4-4-4-4-4-4-4-4-|
A|-5--2-2-2-2-2-2-2-2-2-2-2-2-2-2-|
E|-3------------------------------|
     |             PM            |


[Solo Rhythm]
                                                              
e|---------------------------------------------------------|
B|---------------------------------------------------------|
G|-----------------------------------2-5-4-2---2-5-4-2-----|
D|---------------------------------------------------------|
A|-3--3-3-3-3-3-3-3-3-3-3-3-3-3-3--0---------0-----------5-|
E|-1--1-1-1-1-1-1-1-1-1-1-1-1-1-1------------------------3-|
     |             PM          |

e|-----------------------------------------------------------------|
B|-----------------------------------------------------------------|
G|-----------------------------------------------------------------|
D|----------------------------------7--7-7-7-7-7-7-7-7-7-7-7-7-7-5-|
A|-3--3-3-3-3-3-3-3-3-3-3-3-3-3-3---5--5-5-5-5-5-5-5-5-5-5-5-5-5-3-|
E|-1--1-1-1-1-1-1-1-1-1-1-1-1-1-1-0--------------------------------|
     |             PM          |      |          PM             | 
    
e|------------------------|
B|------------------------|
G|------------------------|
D|-4--4--4--4--4--4--4--4-|
A|-2--2--2--2--2--2--2--2-|
E|------------------------|
  |          PM          |
 

[Solo Lead] 

(INCOMPLETE) I tabbed as much as I could figure out, some of it is still wrong probably.

e|---------------------------------------------------------------------------------|
B|-13\12-10----10h12p10-12-12h13----------10-12/13-----10/12/-13\12/13\12/13-10*~\-|
G|--------- 12-------------------10~\--10----------10~-----------------------------|
D|---------------------------------------------------------------------------------|
A|---------------------------------------------------------------------------------|
E|---------------------------------------------------------------------------------|

e|----------------------12-13-12--------------------------------------------------|
B|----10-12-10-13-12-13-----------------------------------------------------------|
G|-10-----------------------------------------------------------------------------|
D|--------------------------------------------------------------------------------|
A|--------------------------------------------------------------------------------|
E|--------------------------------------------------------------------------------|


[Verse]

e|-----------------------------------------------------------|
B|-----------------------------------------------------------|
G|-----------------------------------------------------------|
D|-9/-4-7-9-------9/-4-7-9-4-3---------------------------5-4-|
A|-7/-2-5-7-2-2-2-7/-2-5-7-2-1-2-2-2-2-2-2-2-2-2-2-2-4-5-3-2-|
E|----------0-0-0--------------0-0-0-0-0-0-0-0-0-0-0-2-3-----|
           | PM  |            |          PM             |

e|-------------------------------------------------------|
B|-------------------------------------------------------|
G|-------------------------------------------------------|
D|-9/-4-7-9-------9/-4-7-9-4-3---------------------------|
A|-7/-2-5-7-2-2-2-7/-2-5-7-2-1-2-2-2-2-2-2-2-2-2-2-2-4-5-|
E|----------0-0-0--------------0-0-0-0-0-0-0-0-0-0-0-2-3-|
           |  PM |            |            PM           |


[Chorus 3 Outro]

e|----------------------------------------|
B|----------------------------------------|
G|----------------------------------------|
D|----------------------------------------|
A|-5-4--5-4--5-4--5-4--5-4--5-4--5-4--5-4-|
E|-3-2--3-2--3-2--3-2--3-2--3-2--3-2--3-2-|
  |               PM                     |
                                                                         x6 (slowly fades out)             
e|----------------------------------------------------------------------------|
B|----------------------------------------------------------------------------|
G|----------------------------------------------------------------------------|
D|----9-9--7-7-7/9-9-9------------------9-9--7-7-7/9-9-9----------------------|
A|----7-7--5-5-5/7-7-7--2-4-5-4-5-4~----7-7--5-5-5/7-7-7--2-4-5-7-5-4-5-4-----|
E|--0-------------------0-2-3-2-3-2~--0-------------------0-2-3-5-3-2-3-2-----|
  |PM|                 |      PM       |                 |     PM        |



************************************
| h   Hammer-on
| p   Pull-off
| r   Release
| /   Slide up
| \   Slide down
| ~   Vibrato
| PM  Palm mute
| *   Pinch Harmonic
************************************
Suggest correction
Creating personal tab
Creating personal tab
You can edit any tab online and save it as your Personal.

You can edit, replace or remove any tab part or add personal notes – all changes will be seen only by you.

Personal tabs can be accessed anytime from any device, even offline.
Learn more »
Give kudos to tab author, rate the tab!
1 2 3 4 5
comments
print report bad tab
guest
You may want to rate the tab now too:
select rating
Wanna post a correction for this tab? Suggest correction