Oops, an error
Loading. Please wait.

Metal Will Never Die Bass Tab

by Dio
924 views 1 this week
no commentswrite comment
1 2 3 4 5
please rate
add to favorites
launch autoscroll
font size
0
reset
guitar tuner
Tab Pro tools
  • play this tab
  • loop segment
  • change instrument
  • show fretboard
  • metronome
×
Best way to learn
"Metal Will Never Die"
Autoscroll
slow
fast
+/-
esc
set tempo
stop
Contributor
Difficulty
Tuning
novice
D G C F A D
-----------------------------------------------------------------
Metal Will Never Die - DIO
-----------------------------------------------------------------

Tabbed By : JD Garcia
e-mail:jdgarcia1@yahoo.com.ph/battlegori@gmail.com
Facebook.com/battlegori
Tuning: Standard D, if anyone complains about the tuning then just adjust.
Tabbed for: Mitshuwih "Chuwi" Nayre

After guitar riff. play intro.


Intro:
F|--------------------------------------------------------------------------|
C|--------------------------------------------------------------------------|
G|--------------------------------------------------------------------------|
D|-12\0--0-000-000-000-000-000-000-000-00-0-000-000-000-000-000-000-000-----|



Verse:
F|--------------------------------------------------------------------------|
C|--------------------------------------------------------------------------|
G|--------------------------------------------------------------------------|
D|---0-000-000-000-000-000-000-000-00-0-000-000-000-000-000-000-000---------|



Pre-chorus:
F|--------------------------------------------------------------------------|
C|--------------------------------------------------------------------------|
G|--------------------------------------------------------------------------|
D|-------------------3-5555----3-555----------------------------------------|
                                   ~


CHORUS:
F|------------------------------------------|-------------------------------|
C|------------------------------------------|-------------------------------|
G|---------7--5--10--5--7---7--5------------|-----7--5--10--5--7--7--5------|
D|------0---------------------------3--5--3-|--0-----------------------3-2-1|
                                          ~                                ~



Guitar Solo part 1:
F|--------------------------------------------|
C|--------------------------------------------|
G|-------------------0------------------------|
D|-222222222222222----222222222222222----5--7-|
                                            ~



F|--------------------------------------------|
C|--------------------------------------------|
G|-------------------0------------------------|
D|-222222222222222----222222222222222----5--3-|
                                            ~



Guitar Solo part 2:
F|--------------------------------------------|
C|--------------------------------------------|
G|-------------------0------------------------|
D|-222222222222222----222222222222222----5--7-|
                                            ~

                                       


F|----------------------------------------------|
C|----------------------------------------------|
G|-------------------0--------------------------|
D|-222222222222222----222222222222222----5--3--2|
                                         ~  ~  ~



Last Chorus: (4x)
F|------------------------------------------|-------------------------------|
C|------------------------------------------|-------------------------------|
G|---------7--5--10--5--7---7--5------------|-----7--5--10--5--7--7--5------|
D|------0---------------------------3--5--3-|--0-----------------------3-2-1|
                                          ~                                ~


Outro:
F|---------------------------------------|
C|---------------------------------------|
G|-----7--5--10--5--7--7--5--------------| 
D|--0--------------------------3-2-1--0--|
                                    
END

 /  slide up
 \  slide down
 h  hammer-on
 p  pull-off
 ~  vibrato
 +  harmonic
comments
We did not receive enough feedback on this tab! Please rate:
print report bad tab
1 2 3 4 5
I want to post or [tab]
guest
You may want to rate the tab now too:
select rating
Please do not post tabs as comments. Select "correction" instead!