Oops, an error
Loading. Please wait.
We have an official Rainbow In The Dark tab made by UG professional guitarists. Check out the tab »
×
by Dio
15,111 views 27 this week
2 commentsread comments
1 2 3 4 5
x 5
add to favorites
×
Save as Personal and add changes to this tab that will be seen only by you. Learn more ›
×
You can save this tab as Personal to edit and correct it or add notes. All changes will be seen only by you. Learn more »
launch autoscroll
font size
0
reset
how to read this tab
guitar tuner
backing track
0:00
0:00
edit
Autoscroll
slow
fast
+/-
esc
set tempo
stop
Author
Band: Dio
Song: Rainbow In The Dark
Tuning: Standard (E A D G B E)

Riff 1
Both Guitars
E|--------|
B|--------|
G|--------|
D|--5-----|
A|--5-----|
E|--3-----|

Riff 2 x3
Guitar 1
E|---------------------------------------|
B|---------------------------------------|
G|---------------------------------------|
D|--7-------3--------5-------------------|
A|--7-------3--------5-------3--2—-0-----|
E|--5----0—-1--0--1--3----3-----------0--|

Guitar 2
E|----------------------3----------------|
B|----------------------3----------------|
G|---------------------------------------|
D|--7-------3--------5-------------------|
A|--7-------3--------5-------3--2—-0-----|
E|--5----0—-1--0--1--3----3-----------0--|

Riff 3
Both Guitars
E|----------------------|
B|----------------------|
G|----------------------|
D|--7-------3--------5--|
A|--7-------3--------5--|
E|--5----0—-1--0--1--3--|

Riff 2 x7

Riff 4
Both Guitars
E|----------------------3-----3-----------|
B|----------------------3-----3-----------|
G|----------------------------------------|
D|--7-------3--------5-----5--------------|
A|--7-------3--------5-----5-----2--0-----|
E|--5----0—-1--0--1--3-----3-----------3--|


Riff 5
Both Guitars
E|-------0--0-----------1---------------0----------------|
B|-------0--0-----------1---------------0----------------|
G|-------------------------------------------------------|
D|--2--------------3---------------2---------3--------5--|
A|--2--------------3---------------2---------3--------5--|
E|--0--------------1---------3--1--0---------1--0--1--3--|

Riff 2 x1
Riff 3 x1
Riff 2 x7
Riff 4 x1
Riff 5 x1
Riff 2 x1
Riff 3 x1

Riff 6
Guitar 1
E|----------------------------------------------------------------------|
B|----------------------------------------------------------------------|
G|------4--4h-5--4--5--4h5h4h5---4h5h4h5h4h5h4h5h4h5h4h5h4h5h4h5-5~---4-|
D|----------------------------------------------------------------------|
A|----------------------------------------------------------------------|
E|----------------------------------------------------------------------|

E|---------------------5-7-8-7-5-----5-7-5h7h5h7-5---5-7-5-7-5h7h5---5--|
B|---------5-6-5---5-8-----------8-----------------8---------------8--8r|
G|-----5-7-------7------------------------------------------------------|
D|---7------------------------------------------------------------------|
A|----------------------------------------------------------------------|
E|----------------------------------------------------------------------|
                                                
E|----------------------------------------------|
B|------------5h8h5-----------------------------|
G|------------------7r-----7------4h5h4--4~-----|
D|----------------------------------------------|
A|----------------------------------------------|
E|----------------------------------------------|
                                                                     
E|--12h13h15h13h12----------------------------------------------------|
B|-----------------15h13h15h13h12----------12h13h15h13h12-12h13h12----|
G|--------------------------------14h12h14-------------------------14-|
D|--------------------------------------------------------------------|
A|--------------------------------------------------------------------|
E|--------------------------------------------------------------------|
                                     
E|------------------------------------|
B|------------------17-------17-------|
G|--14b----------14-------14-------14-|
D|------------17b------17b------17b---|
A|------------------------------------|
E|------------------------------------|

                                                  
E|--17-------17----------------17----------17-------|
B|--------------------17----------------17----------|
G|--------14-------14-------14-------14----------14-|
D|-----17b------17b------17b------17b---------17b---|
A|--------------------------------------------------|
E|--------------------------------------------------|
                                                                    
E|--17--19--19b-19-20-19-17----17-17-20-17-19-17----17-19-17-19-17----|
B|--------------------------20-------------------20----------------20-|
G|--------------------------------------------------------------------|
D|--------------------------------------------------------------------|
A|--------------------------------------------------------------------|
E|--------------------------------------------------------------------|
                                                                           
E|17-20-17-19-17--17-20-17-19-17--17-20-17-19-17--19-17-20-17-19-17-20-17
B|---------------20--------------20--------------20----------------------
G|-----------------------------------------------------------------------
D|-----------------------------------------------------------------------
A|-----------------------------------------------------------------------
E|-----------------------------------------------------------------------
                                                                               
E-19-17-20-17-19-17-20-17-19-17-20-17-19-17--19-17-20-17-19-17----------|
B------------------------------------------20-----------------20-20h17-20
G-----------------------------------------------------------------------|
D-----------------------------------------------------------------------|
A-----------------------------------------------------------------------|
E-----------------------------------------------------------------------|
                                                                           
E--------17h15h12h15h12h10h12h15----12----12-15h12-------12----12-15h12-|
B--20b---------------------------15b---15b---------15-15b---15b-------15|
G-----------------------------------------------------------------------|
D-----------------------------------------------------------------------|
A-----------------------------------------------------------------------|
E-----------------------------------------------------------------------|
                                                                            
E----12----12-15h12-------12----12-15h12-------12----12-15h12-----------|
B-15b---15b---------15-15b---15b---------15-15b---15b--------15-15b-15-12
G-----------------------------------------------------------------------|
D-----------------------------------------------------------------------|
A-----------------------------------------------------------------------|
E-----------------------------------------------------------------------|
                                               
E|--------------------------------------------------|
B|--15b---13h14h13-12h13h12-10h12h10-8h10h8-12--13--|
G|--------------------------------------------------|
D|--------------------------------------------------|
A|--------------------------------------------------|
E|--------------------------------------------------|
                                               
E|----------------------------------------------|
B|--12h-13h-12--10-12-13-10-12--12-13h12h10-----|
G|----------------------------------------------|
D|----------------------------------------------|
A|----------------------------------------------|
E|----------------------------------------------|
   
                                                       
E|---------------------------------------------------------|
B|---------------------------------------------------------|
G|--12h14h12-10h12h10-9h10h9-7h9h7-5h7h5-4h5h4-2h4h2-0h2h0-|
D|---------------------------------------------------------|
A|---------------------------------------------------------|
E|---------------------------------------------------------|
                                                                             
E--7--7--5--7-----------------|
B-----------------------------|
G--------------5--7r---5------|
D------------------------7----|
A-----------------------------|
E-----------------------------|

Guitar 2
E|----------------------3----------------|
B|----------------------3----------------|
G|---------------------------------------| x7
D|--7-------3--------5-------------------|
A|--7-------3--------5-------3--2—-0-----|
E|--5----0—-1--0--1--3----3-----------0--|

E|----------------------3-----3-----------|
B|----------------------3-----3-----------|
G|----------------------------------------|
D|--7-------3--------5-----5--------------|
A|--7-------3--------5-----5-----2--0-----|
E|--5----0—-1--0--1--3-----3-----------3--|

E|-------0--0-----------1---------------0----------------|
B|-------0--0-----------1---------------0----------------|
G|-------------------------------------------------------|
D|--2--------------3---------------2---------3--------5--|
A|--2--------------3---------------2---------3--------5--|
E|--0--------------1---------3--1--0---------1--0--1--3--|

Riff 7
Guitar 1
E|--------------------------------------|
B|--------------------------------------|
G|--------------------------------------|
D|--7-------3--------5------------------|
A|--7-------3--------5------3--2—-0-----|
E|--5----0—-1--0--1--3---3-----------0--|

E|----------------------|
B|----------------------|
G|----------------------|
D|--7-------3--------5--|
A|--7-------3--------5--|
E|--5----0—-1--0--1--3--|

Riff 2 x7
Riff 4 x1


Riff 8 
Both Guitars
E|-------0--0-----------1-------------|
B|-------0--0-----------1-------------|
G|------------------------------------| 
D|--2--------------3---------------2--|
A|--2--------------3---------------2--|
E|--0--------------1---------3--1--0--|

E|-------0--0-----------1---------------0----------------|
B|-------0--0-----------1---------------0----------------|
G|-------------------------------------------------------|
D|--2--------------3---------------2---------3--------5--|
A|--2--------------3---------------2---------3--------5--|
E|--0--------------1---------3--1--0---------1--0--1--3--|

Riff 9
Guitar 1
E|--------------------------------------|
B|--------------------------------------|
G|--------------------------------------| x3
D|--7-------3--------5------------------|
A|--7-------3--------5------3--2—-0-----|
E|--5----0—-1--0--1--3---3-----------0--|

E|----------------------|
B|----------------------|
G|----------------------|
D|--7-------3--------5--|
A|--7-------3--------5--|
E|--5----0—-1--0--1--3--|

Riff 2 (fade out)


Tab by Gino

            
            
Suggest correction
Creating personal tab
Creating personal tab
You can edit any tab online and save it as your Personal.

You can edit, replace or remove any tab part or add personal notes – all changes will be seen only by you.

Personal tabs can be accessed anytime from any device, even offline.
Learn more »
comments
print report bad tab
2 comments total.
+1 reply
jf9ooh 10 Dec 11, 2008 04:41 AM

pretty good

0 reply
JorHelloween 10 Aug 01, 2009 04:51 PM

sound good great tab dude!

guest
You may want to rate the tab now too:
select rating
Wanna post a correction for this tab? Suggest correction