Oops, an error
Loading. Please wait.
We have an official Rainbow In The Dark tab made by UG professional guitarists. Check out the tab »
×
by Dio
2,952 views 6 this week
1 commentread comment
1 2 3 4 5
x 4
add to favorites
×
Save as Personal and add changes to this tab that will be seen only by you. Learn more ›
×
You can save this tab as Personal to edit and correct it or add notes. All changes will be seen only by you. Learn more »
launch autoscroll
font size
0
reset
guitar tuner
backing track
0:00
0:00
edit
Autoscroll
slow
fast
+/-
esc
set tempo
stop
Author
Song: Rainbow in the Dark
Band: Dio

A legend song with a good keyboard riff. I did the best I could

Intro
G|--------------------------------|
D|--------------------------------|
A|--------------------------------|
E|-3------------------------------|

Chorus A
G|--------------------------------|
D|--------------------------------|
A|----------------------3-2-0-----|
E|5--5-5-1-1-1-3--3-3---------3---|

Chorus B
G|--------------------------------|
D|--------------------------------|
A|--------------------------------|
E|5--5-5-1-1-1-3------------------|

Verse
G|--------------------------------|
D|--------------------------------|
A|----------------------3-2-0-----|
E|5---5--1-1-1-3--3-3---------3---|

Verse Fill
G|--------------------------------|
D|--------------------------------|
A|--------------------3-2-0-------|
E|5---5--1-1-1-3--3-3-------3-3---|

Pre chorus A
G|--------------------------------|
D|--------------------------------|
A|--------------------------------|
E|0---0-0-0-0-0-0-1---1-1-1-1---3-|

G|--------------------------------|
D|--------------------------------|
A|--------------------------------|
E|0---0-0-0-0-0-0-1-1-1-1-3-3-3-3-|

Chorus C
G|--------------------------------|
D|--------------------------------|
A|--------------------------------|
E|---5---5---5---5---5---1-3------|

Pre chorus B
G|--------------------------------|
D|--------------------------------|
A|--------------------------------|
E|0---0-0-0-0-0-0-1---1-1-1-1---3-|

G|--------------------------------|
D|--------------------------------|
A|--------------------------------|
E|0---0-0-0-0-0-0-1---1-1-1-1---3-|

G|--------------------------------|
D|--------------------------------|
A|--------------------------------|
E|0---0-0-0-0-0-0-1-1-1-1-3-3-3-3-|

Chorus D
G|--------------------------------|
D|--------------------------------|
A|--------------------------------|
E|---5---5---5---5---5---5---5---5|

G|--------------------------------|
D|--------------------------------|
A|--------------------------------|
E|---5---5---5---5---5---1-3------|

Song structure
Intro x1
Chorus A x3
Chorus B x1
Verse x7
Verse Fill x1
Pre Chorus A x1
Chorus A x1
Chorus B x1
Verse x7
Verse Fill x1
Pre Chorus A x1
Chorus C x1
Verse x7
Verse Fill x1
Pre Chorus A x1
Chorus C x1
Verse x7
Verse Fill x1
Pre Chorus B x1
Chorus D x1
Chorus A. Repeat and fade until the end.

Please rate.

Enjoy!!!

            
            
Suggest correction
Creating personal tab
Creating personal tab
You can edit any tab online and save it as your Personal.

You can edit, replace or remove any tab part or add personal notes – all changes will be seen only by you.

Personal tabs can be accessed anytime from any device, even offline.
Learn more »
comments
print report bad tab
1 comment total.
0 reply
raorn 10 Dec 18, 2015 09:48 AM

Clearly wrong. Wrong wrong wrong wrong wrong wrong wrong wrong wrong wrong wrong wrong wrong wrong wrong wrong wrong wrong wrong wrong.

guest
You may want to rate the tab now too:
select rating
Wanna post a correction for this tab? Suggest correction