Oops, an error
Loading. Please wait.

Amore Che Vieni Amore Che Vai tab

by Diodato
43 views 1 this week
no commentswrite comment
1 2 3 4 5
2 more votes to show rating
add to favorites
×
Save as Personal and add changes to this tab that will be seen only by you. Learn more ›
×
You can save this tab as Personal to edit and correct it or add notes. All changes will be seen only by you. Learn more »
launch autoscroll
font size
0
reset
how to read this tab
guitar tuner
edit
Autoscroll
slow
fast
+/-
esc
set tempo
stop
Author
Difficulty
intermediate
About this tab version
This is the version played by Diodato and used as soundtrack in the movie "Anni felici", by Daniele Luchetti. Was this info helpful? Yes No
Artist: Diodato
Song: Amore che vieni amore che vai
Source: https://www.youtube.com/watch?v=7xwer82erfg
Tabbed by: Matteo Grigoletto
Email: matteo.grigoletto@gmail.com
Tuning: Standard
Tempo: 3/4
Metronome: 60 bpm (beats per minute)

[Intro]
  Em                  B        Em                  B  
e|----------------------------------------------------------------------------|
B|----------------------------------------------------------------------------|
G|x/9-9-11-11/12-11-9-11-9-8---x/9-9-11-11/12-11-9-11-9-8---------------------|
D|----------------------------------------------------------------------------|
A|----------------------------------------------------------------------------|
E|----------------------------------------------------------------------------|

[Second guitar]
e|----------------------------------------------------------------------------|
B|----------------------------------------------------------------------------|
G|----------------------------------------------------------------------------|
D|----------------------------------------------------------------------------|
A|----------------------------------------------------------------------------|
E|-0-/7-5-7-4-5--0-/7-5-7-4-5--0-/7-5-7-4-5--0-/7-5-7-4-5---------------------|

[Verse]
Em             B7         G          B7 
Quei giorni perduti a rincorrere il vento
Em             D          G          B7 
a chiederci un bacio e volerne altri cento
Em             F#7        B     Em* 
un giorno qualunque li ricorderai
Am             Em         B     Em* 
amore che fuggi da me tornerai
Em*            FA#add4    B     Em** 
un giorno qualunque li ricorderai
Am             Em         B     Em* 
amore che fuggi da me tornerai

Em             B7         G     B7 
e tu che con gli occhi di un altro colore
Em             D          G     B7 
mi dici le stesse parole d'amore
Em             F#7        B     Em* 
fra un mese fra un anno scordate le avrai
Am             Em         B     Em* 
amore che vieni da me fuggirai
Em*            F#add4     B     Em** 
fra un mese fra un anno scordate le avrai
Am             Em         B     Em* 
amore che vieni da me fuggirai

   Em*        B7         G          B7 
e|-----------------------------------------------------------------------------|
B|-------0---------4---------------------4-------------------------------------|
G|---------------2-2----------3----------2-------------------------------------|
D|-----2-------1------------0----------1---------------------------------------|
A|---2--------------------2----------------------------------------------------|
E|-0---------2----------3------------2-----------------------------------------|
  venuto dal sole o da spiagge gelate

   Em       D         G            B7 
e|---------------------------------------2-------------------------------------|
B|-------0---------3---------------------4-------------------------------------|
G|---------------2-2----------3----------2-------------------------------------|
D|-----2-------4------------0----------4---------------------------------------|
A|---2--------------------2----------2-----------------------------------------|
E|-0---------2----------3------------------------------------------------------|
  perduto in novembre o col vento d'estate

[Chorus]
Em            F#7         B          Em* 
io t'ho amato sempre, non t'ho amato mai
Am        Em       B        Em* 
amore che vieni, amore che vai
Em*           F#add4      B          Em** 
io t'ho amato sempre, non t'ho amato mai
Am        Em       B        Em* 
amore che vieni, amore che vai.

[Legend]
   Em   B7   G    B    D   F#7  Em*  Am  F#add4  Em** 
e|-7----7----7----2----5----x----0----5----x------x-|
B|-8----7----8----3----7----7----0----5----0------5-|
G|-9----8----7----3----7----9----0----5----3------4-|
D|-9----7----9----3----7----8----2----7----4------2-|
A|-7----9---10----2----5----9----2----7----4------2-|
E|-7----7----7----2----5----x----0----5----x------0-|

/ = slide up

            
            
Suggest correction
Creating personal tab
Creating personal tab
You can edit any tab online and save it as your Personal.

You can edit, replace or remove any tab part or add personal notes – all changes will be seen only by you.

Personal tabs can be accessed anytime from any device, even offline.
Learn more »
Give kudos to tab author, rate the tab!
1 2 3 4 5
comments
print report bad tab
guest
You may want to rate the tab now too:
select rating
Wanna post a correction for this tab? Suggest correction