Oops, an error
Loading. Please wait.

Ill Never Fall In Love Again Bass Tab

10 views 1 this week
no commentswrite comment
1 2 3 4 5
3 more votes to show rating
add to favorites
launch autoscroll
font size
0
reset
guitar tuner
Autoscroll
slow
fast
+/-
esc
set tempo
stop
Help us to improve Ultimate-Guitar.com Take our survey!
×
Author
Difficulty
novice
About this tab version
The song was written for the 1968 musical Promises, Promises. Was this info helpful? Yes No
  [Intro]
G|----------------|----------------|----------------|----------------|
D|----------------|----------------|----------------|----------------|
A|3-------3---3---|3-------3---3---|3-------3---3---|3-------3---3---|
E|----------------|----------------|----------------|----------------|

  [Verse]
  What    Get      Fall 
G|----------------|----------------|----------------|----------------|
D|----------------|----------------|----------------|----------------|
A|3-------3-------|0-------0-------|----------------|----------------|
E|----------------|----------------|1-------1-------|1-------1-------|

                                    [Chorus]
G|----------------|----------------|----------------|----------------|
D|----------------|----------------|0-------0-------|0---------------|
A|----------------|0-------0-------|----------------|----------------|
E|0-------0-------|----------------|----------------|--------3-------|

                                    2 beats
G|----------------|----------------|--------|----------------|
D|----------------|----------------|--------|----------------|
A|----------------|3-----3-----3---|--------|----------------|
E|1-------1---1---|----------------|1-------|3-----3-3-------|

G|----------------|----------------|
D|----------------|----------------|
A|3-------3---3---|3-------3---3---|
E|----------------|----------------|

  [Verse]
G|----------------|----------------|----------------|----------------|
D|----------------|----------------|----------------|----------------|
A|3-------3-------|0-------0-------|----------------|----------------|
E|----------------|----------------|1-------1-------|1-------1-------|

                                    [Chorus]
G|----------------|----------------|----------------|----------------|
D|----------------|----------------|0-------0-------|0---------------|
A|----------------|0-------0-------|----------------|----------------|
E|0-------0-------|----------------|----------------|--------3-------|

G|----------------|----------------|--------|----------------|
D|----------------|----------------|--------|----------------|
A|----------------|3-----3-----3---|--------|----------------|
E|1-------1---1---|----------------|1-------|3-----3-3-------|

G|----------------|
D|----------------|
A|3-------3---3---|
E|----------------|

  [Break]
G|----------------|----------------|----------------|----------------|
D|----------------|----------------|----------------|----------------|
A|3-------3-------|----------------|3-------3-------|----------------|
E|----------------|3-------3-------|----------------|3-------3-------|

G|----------------|----------------|----------------|----------------|
D|----------------|----------------|----------------|0-------0-------|
A|3-------3-------|--------2-------|--------2-------|----------------|
E|----------------|0---------------|0---------------|----------------|

G|----------------|
D|----------------|
A|----------------|
E|3-------3---3---|

 [Verse]
G|----------------|----------------|----------------|----------------|
D|----------------|----------------|----------------|----------------|
A|3-------3-------|0-------0-------|----------------|----------------|
E|----------------|----------------|1-------1-------|1-------1-------|

                                    [Chorus]
G|----------------|----------------|----------------|----------------|
D|----------------|----------------|0-------0-------|0---------------|
A|----------------|0-------0-------|----------------|----------------|
E|0-------0-------|----------------|----------------|--------3-------|

G|----------------|----------------|--------|----------------|
D|----------------|----------------|--------|----------------|
A|----------------|3-----3-----3---|--------|----------------|
E|1-------1---1---|----------------|1-------|3-----3-3-------|

G|----------------|
D|----------------|
A|3-------3---3---|
E|----------------|

  [Break]
G|----------------|----------------|----------------|----------------|
D|----------------|----------------|----------------|----------------|
A|3-------3-------|----------------|3-------3-------|----------------|
E|----------------|3-------3-------|----------------|3-------3-------|

G|----------------|----------------|----------------|----------------|
D|----------------|----------------|----------------|0-------0-------|
A|3-------3-------|--------2-------|--------2-------|----------------|
E|----------------|0---------------|0---------------|----------------|

G|----------------|
D|----------------|
A|----------------|
E|3-------3---3---|

G|----------------|----------------|----------------|----------------|
D|----------------|----------------|----------------|----------------|
A|3-------3-------|0-------0-------|----------------|----------------|
E|----------------|----------------|1-------1-------|1-------1-------|

                                    [Chorus]
G|----------------|----------------|----------------|----------------|
D|----------------|----------------|0-------0-------|0---------------|
A|----------------|0-------0-------|----------------|----------------|
E|0-------0-------|----------------|----------------|--------3-------|

G|----------------|----------------|--------|----------------|
D|----------------|----------------|--------|----------------|
A|----------------|3-----3-----3---|--------|----------------|
E|1-------1---1---|----------------|1-------|3-------3---3---|

                                            Pause      
G|----------------|----------------|----------------|
D|----------------|----------------|----------------|
A|3-------3---3---|3-------3---3---|3---------------|
E|----------------|----------------|----------------|

 [Outro]
G|----------------|----------------|----------------|----------------|
D|----------------|----------------|----------------|----------------|
A|3-------3---3---|3-------3---3---|3-------3---3---|3-------3---3---|
E|----------------|----------------|----------------|----------------|
Suggest correction
Give kudos to tab author, rate the tab!
1 2 3 4 5
comments
print report bad tab
guest
You may want to rate the tab now too:
select rating
Wanna post a correction for this tab? Suggest correction