Oops, an error
Loading. Please wait.

Andantino-In-Am Tab

256 views 1 this week
no commentswrite comment
1 2 3 4 5
2 more votes to show rating
add to favorites
launch autoscroll
font size
0
reset
how to read this tab
guitar tuner
Autoscroll
slow
fast
+/-
esc
set tempo
stop
Help us to improve Ultimate-Guitar.com Take our survey!
×
Difficulty
novice
e|---------------|---------------|---------------|---------------|
B|---------0---1-|-----1---0-----|-----0---1---3-|-----3---1---0-|
G|-----2---------|-------------2-|---------------|---------------|
D|---------------|---------------|---------------|---------------|
A|-0=============|-0=============|---------------|---------------|
E|---------------|---------------|-0=============|-0=============|
   |   |   |   |   |   |   |   |   |   |   |   |   |   |   |   |
R  p   i   m   i   p   m   i   i   p   m   i   m   p   m   i   m
L      2       1       1       2           1   4       4   1

e|---------------|---------0---1-|-----0---------|---------------||
B|---------0---1-|-----3---------|---------------|---------------||
G|-----2---------|---------------|-------------1-|-2============*||
D|---------------|-0-------------|-2-------------|--------------*||
A|-0=============|---------------|---------------|---------0-----||
E|---------------|---------------|---------0-----|---------------||
   |   |   |   |   |   |   |   |   |   |   |   |   |   |   |   |   
R  p   i   m   i   p   i   m   i   p   m   p   i   m       p
L      2       1       4       1   2           1   1

Part B

[9]
e|-----0---------|---------------|---------------|---------------|
B|---------3---1-|-----0---------|-----1---0-----|-----0---------|
G|---------------|---------2---1-|-------------2-|---------------|
D|-2=============|---------------|---------------|---------2-----|
A|---------------|---------------|-0=============|---------------|
E|---------------|-0=============|---------------|-0-------------|
   |   |   |   |   |   |   |   |   |   |   |   |   |   |   |   |
R  p   m   i   m   p   m   i   m   p   m   i   i   p   m   i
L  2       4   1           2   1       1       2           2

e|---------------|---------0---1-|-----0---------|---------------||
B|---------0---1-|-----3---------|---------------|---------------||
G|-----2---------|---------------|-------------1-|-2============*||
D|---------------|-0=============|-2-------------|--------------*||
A|-0=============|---------------|---------------|---------0-----||
E|---------------|---------------|---------0-----|---------------||
   |   |   |   |   |   |   |   |   |   |   |   |   |   |   |   |   
R  p   i   m   i   p   i   m   i   p   m   p   i   m       p
L      2       1       4       1   2           1   1
Suggest correction
Give kudos to tab author, rate the tab!
1 2 3 4 5
comments
print report bad tab
guest
You may want to rate the tab now too:
select rating
Wanna post a correction for this tab? Suggest correction