Oops, an error
Loading. Please wait.

Cage Bass Tab

version 1
version 1

Whole song

Interactive

16,101 views 15 this week
3 commentsread comments
1 2 3 4 5
excellent!
x 13
add to favorites
launch autoscroll
font size
0
reset
guitar tuner
Autoscroll
slow
fast
+/-
esc
set tempo
stop
Help us to improve Ultimate-Guitar.com Take our survey!
×
Author
Difficulty
Tuning
intermediate
D A D G B E
Dir En Grey - Cage
Album: Gauze
Bassist: Toshiya
Tabbed by: facebook.com/guybrusht

Dir en Grey's sound very distinct thank to Toshyiya's fast moving bass lines!
Gotta love the bass solo in this one, have fun!

Drop D Tuning
p=pop    /=slide    <=harmonic


G|--------|--------|--------|--------|
D|----33--|-----3--|--------|----232-|
A|5500--33|---0--3-|11335511|0240---3|
D|--------|775-----|--------|--------|

G|--------|--------|--------|22------|
D|----33--|-----3--|----3322|--32----|
A|5500--33|---0--3-|1133----|-----330|
D|--------|775-----|--------|--------|

G|--------|--------|--------|--------|
D|----33--|-----3--|--------|----232-|
A|5500--33|---0--3-|11335511|0240---3|
D|--------|775-----|--------|--------|

G|--------|--------|--------|
D|----33--|-----3--|----3322|
A|5500--33|---0--3-|1133----|
D|--------|775-----|--------|

G|--------|--------|-------2|--------|
D|--------|--------|--------|--------|
A|0-------|--------|--------|--------|
D|--------|--------|--------|--------|
  hold until A pop         p

G|--------|--------|--------|--------|
D|--------|--------|--------|--------|
A|--------|-------5|--------|--------|
D|0-0-0-0-|0-0-0-0-|0-0-0-0-|0-070503|

G|--------|--------|--------|--------|
D|--------|--------|--------|--------|
A|--------|--------|--------|-----5--|
D|0-0-0-0-|0-070503|0-0-0-0-|0-0-0-03|

G|--------|--------|--------|--------|
D|--------|--------|--------|--------|
A|--------|-------5|--------|--------|
D|0-0-0-0-|0-0-0-0-|0-0-0-0-|0-070503|

G|--------|--------|--------|--------|
D|--------|--------|--------|----22--|
A|--------|--------|1-1-1-1-|3311--33|
D|0-0-0-0-|0-070503|--------|--------|

G|--------|--------|--------|--------|
D|--------|--------|--------|--------|
A|1-111101|3-333303|0-0000--|5557778-|
D|--------|--------|------57|--------|

G|--------|--------|-------2|0-32-0--|
D|--------|--------|----30--|-3--3-32|
A|1-111111|0-0000/7|3530--3-|--------|
D|--------|--------|--------|--------|

G|--------|--------|--------|--------|
D|--------|--------|--------|--------|
A|1-111101|3-333303|0-00007-|5557778-|
D|--------|--------|--------|--------|

G|--------|--------|22222222|2-2-0---|
D|--------|--23-323|--------|-2---32-|
A|1-111111|11--1---|--------|-------3|
D|--------|--------|--------|--------|

G|--------|--------|--------|--------|
D|--------|--------|--------|--223322|
A|5-555555|55778877|0-000000|00------|
D|--------|--------|--------|--------|

G|--------|--------|--------|--------|
D|--------|----33--|--------|----22--|
A|1-111111|1111--11|0-000000|0033--33|
D|--------|--------|--------|--------|

G|--------|--------|--------|--------|
D|--------|------55|7-777777|77--5577|
A|5-555555|557788--|--------|--77----|
D|--------|--------|--------|--------|

G|--------|--7755--|--------|--------|
D|8-888888|88----88|7-777777|77553322|
A|--------|--------|--------|--------|
D|--------|--------|--------|--------|

G|--------|--------|--------|--------|
D|----33--|-----3--|--------|----232-|
A|5500--33|---0--3-|11335511|0240---3|
D|--------|775-----|--------|--------|
                             
G|--------|--------|--------|2-------|
D|----33--|-----3--|----3322|--------|
A|5500--33|---0--3-|1133----|--------|
D|--------|775-----|--------|--------|
                             p

G|--------|--------|--------|--------|
D|--------|--------|--------|--------|
A|--------|--------|1-------|-------1|
D|0-------|----0303|--------|--------|

G|--------|--------|--------|--------|
D|--------|--------|--------|--------|
A|3-------|--------|1-------|3-----1-|
D|--------|--------|--------|-------3|

G|--------|--------|--------|--------|
D|--------|--------|--------|--------|
A|--------|--------|1-------|-------1|
D|0-------|----0303|--------|--------|

G|--------|--------|--------|--------|
D|--------|--------|--------|--------|
A|3-------|--------|1-------|331100--|
D|--------|--------|--------|------55|

G|--------|--------|--------|--------|
D|--------|--------|--------|--------|
A|1-111101|3-333303|0-0000--|5557778-|
D|--------|--------|------57|--------|

G|--------|--------|-------2|0-32-0--|
D|--------|--------|----30--|-3--3-32|
A|1-111111|0-0000/7|3530--3-|--------|
D|--------|--------|--------|--------|

G|--------|--------|22222222|2-2-0---|
D|--------|--23-323|--------|-2---32-|
A|1-111111|11--1---|--------|-------3|
D|--------|--------|--------|--------|

G|--------|--------|--------|--------|
D|--------|--------|--------|--223322|
A|5-555555|55778877|0-000000|00------|
D|--------|--------|--------|--------|

G|--------|--------|--------|--------|
D|--------|----33--|--------|----22--|
A|1-111111|1111--11|0-000000|0033--33|
D|--------|--------|--------|--------|

G|--------|--------|--------|--------|
D|--------|------55|7-777777|77--5577|
A|5-555555|557788--|--------|--77----|
D|--------|--------|--------|--------|

G|--------|--7755--|--------|--------|
D|8-888888|88----88|7-777777|77553322|
A|--------|--------|--------|--------|
D|--------|--------|--------|--------|

G|--------|--------|
D|0-------|--------|
A|--------|--------|
D|0-------|--------|

SOLO!
G|--------|-----2--|--------|--------|
D|----3-5-|65323---|----3-5-|32------|
A|5535-5--|------3-|5535-5--|--310033|
D|--------|--------|--------|--------|

G|--------|-----2--|--------|---57777|
D|----3-5-|65323---|---35356|757-----|
A|5535-5--|------3-|535-----|--------|
D|--------|--------|--------|--------|

G|--------|-----2--|--------|1919171715151414|
D|----3-5-|65323---|-----357|1919171715151414| (big slide there)
A|5535-5--|------3-|55355---|----------------|
D|--------|--------|--------|----------------|

G|--------|-----2--|--------|<4------|
D|----3-5-|65323---|--223355|--<5--<5| not sure here, so any help/corrections
A|5535-5--|------3-|55------|----<5--| would be much appreciated.
D|--------|--------|--------|--------|

G|--------|--------|--------|--------|
D|--------|---3-3--|--------|---3-3--|
A|--------|-03---3-|--------|-03---3-|
D|3-33-33-|3-------|3-33-33-|3-------|

G|--------|--------|--------|--------|
D|--------|---3-3--|--------|--------|
A|--------|-03---3-|5-55-50-|5-55-50-|
D|3-33-33-|3-------|--------|--------|

G|--------|--------|--------|--------|
D|--------|---5-5--|--------|---4-4--|
A|--------|------5-|--------|------5-|
D|5----5--|587-----|5----5--|587-----|

G|--------|--------|--------|--------|
D|--------|---5-332|--------|--------|
A|--------|--------|3---3-31|3-------|
D|5----5--|587-----|--------|--------|



G|--------|--------|--------|--------|
D|--------|--------|--------|0002223-|
A|1-111101|3-333303|0-0000--|--------|
D|--------|--------|------57|--------|

G|----3--3|-3------|-6--9---|--------|
D|--------|--33008-|7--7--7-|9-------|
A|1--1----|--------|--------|7-------|
D|--------|--------|--------|0-------|

G|--------|--------|--------|--------|
D|--------|--------|--------|--223322|
A|5-555555|55778877|0-000000|00------|
D|--------|--------|--------|--------|

G|--------|--------|--------|--------|
D|--------|----33--|--------|----22--|
A|1-111111|1111--11|0-000000|0033--33|
D|--------|--------|--------|--------|

G|--------|--------|--------|--------|
D|--------|------55|7-777777|77--5577|
A|5-555555|557788--|--------|--77----|
D|--------|--------|--------|--------|

G|--------|--7755--|--------|--------|
D|8-888888|88----88|7-777777|77553322|
A|--------|--------|--------|--------|
D|--------|--------|--------|--------|

G|--------|--------|--------|--------|
D|----33--|-----3--|--------|----232-|
A|5500--33|---0--3-|11335511|0240---3|
D|--------|775-----|--------|--------|

G|--------|--------|--------|22------|
D|----33--|-----3--|----3322|--32----|
A|5500--33|---0--3-|1133----|-----330|
D|--------|775-----|--------|--------|

G|--------|--------|--------|--------|
D|----33--|-----3--|--------|----232-|
A|5500--33|---0--3-|11335511|0240---3|
D|--------|775-----|--------|--------|

G|--------|--------|--------|2-------|
D|----33--|-----3--|----3322|2-------|
A|5500--33|---0--3-|1133----|0-------|
D|--------|775-----|--------|--------|
Suggest correction
comments
print report bad tab
3 comments total.
+1 reply
keneticshark24 135 wrote on November 2 2007, 08:41 pm

Keep up with the Dir en grey bass tabs. Cheers.

+1 reply
Uuhlababass 10 wrote on March 4 2009, 04:15 pm

what a song! thanks dude!

0 reply
kest.emptyness 10 wrote on May 8 2016, 08:52 am

G|--------|-----2--|--------|<4--<6--| need to pick them
D|----3-5-|65323---|--223355|--<4--<6| i think location may vary depending on guitar. just a slight difference
A|5535-5--|------3-|55------|--------|
D|--------|--------|--------|--------|

guest
You may want to rate the tab now too:
select rating
Please do not post tabs as comments. Select "correction" instead!