Oops, an error
Loading. Please wait.

Clever Sleazoid Bass Tab

version 2
version 2

Whole song

Interactive

2,184 views 1 this week
1 commentread comment
1 2 3 4 5
please rate
add to favorites
launch autoscroll
font size
0
reset
guitar tuner
Autoscroll
slow
fast
+/-
esc
set tempo
stop
Help us to improve Ultimate-Guitar.com Take our survey!
×
Difficulty
intermediate
Third tab contact me by email if you have any questions.

email: bassist536@hotmail.com

This is for a 5 string if you want to play it on a 4 tuned to C# the 5th string is a B 
the second fret of the B is a C#.

~ = let ring
/ = slide up
\ = slide down
X = click also called a ghost note.

This is best played with a pick and a lot of lows and mids maybe a touch of chorus.

Intro begin after Kyo screams "WAKE UP YOU'RE DEAD"
G-----------------------------------------------------------|
D-----------------------------------------------------------|
A----4--2--4-------0-----------4-2-4------0---2-------------|
E---------------------2-4-------------------2---4-----------|
B--2----------2-3---------3--2--------2-3-------------------|
play this two times.

This is basically the part you can march to.
G-----------------------------------------------------------|
D-----------------------------------------------------------|
A-------------------------4-4-X-4-4-2-4----4-2-4------------|
E----------------------------------------------------4-2----|
B-2-2-2-X-X-2-2-2-2-X-X-2----------------2-------2-3--------|

G-----------------------------------------------------------|
D-----------------------------------------------------------|
A-------------------------4-4-X-4-4-2-4----4-2-4------------|
E----------------------------------------------------0-2----|
B-2-2-2-X-X-2-2-2-2-X-X-2----------------2-------2-3--------|

CHORUS:
G--------------------------------------------------------------|
D--------------------------------------------------------------|
A--------------------------------------------------------------|
E-----------------4-4-4-4-4-4-4-4--5-5-5-5-5-5-0-0-0-0-0-0-----|
B-2-2-2-2-2-2-2-2------------------------------------------4-4-|

G--------------------------------------------------------------|
D--------------------------------------------------------------|
A--------------------------------------------------------------|
E-----------------4-4-4-4-4-4-4-4--5-5-5-5-5-5-0-0-0-0-0-0-----|
B-2-2-2-2-2-2-2-2------------------------------------------4-4-|

G--------------------------------------------------------------------------|
D----------------------------------2-2-2-2-2-2-2-2-------------------------|
A--4-4-4-4-4-4-4-4---------6-6-6-6-0-0-0-0-0-0-0-0-0-0-0-0---------4-4-4-4-|
E------------------4-4-4-4-4-4-4-4-------------------------4-4-4-4---------|
B--------------------------------------------------------------------------|

G-----------------------------------------------------------|
D-----------------------------------------------------1-1-1-|
A-4-4-4-4-----------------0-0-0-0-0-------------2-2-2-------|
E---------4-4-4-4-4-4-4-4-----------2-2-2-4-4-4-------------|
B-----------------------------------------------------------|


G------------------------------------------------------------|
D-------------------4--2--4----------------------------------|
A------------------------------------------------------------|
E----------------2-----------2-3-----------------------------|
B--2-2-2-2-2-2-2---------------------------------------------|

REPEAT MARCH PART

THEN CHORUS AGAIN

G-----------------------------------------------------------|
D-----------------------------------------------------------|
A-----------------------------------------------------------|
E---------------------------------0-0-0-0-0-0-0-0-0-0-0-0---|
B-2-2-2-2-2-2-2-2-2-2-2-2-2-2-2-2---------------------------|

G-------------------------------------------------------------------|
D-------------------------------------------------------------------|
A-2-2-2-2-------------------------2-2-2-2---------------------------|
E---------0-0-0-0-0-0-0-0-0-0-0-0----------4-4-4-4-4-4-4-4-4-4-4-4--|
B-------------------------------------------------------------------|

G-------------------------------------------------------------|
D-------------------------------------------------------------|
A-------------------------------------------------------------|
E-0-0-0-0--2-2-2-2-2-2-2-2-2-2-2-2--------4-4-4-4-2-4-X-X-4-4-|
B----------------------------------2-2-2-2--------------------|

"ONE DAY I WILL F*** YOUR PARENTS"
G-----------------------------------------------------------|
D-----------------------------------------------------------|
A-----------------------------------------------------------|
E-----------------------------------------------------------|
B-2-2-2-2-2-2-2-2-2-2-2-2-2-2-2-2---------------------------|

G-----------------------------------------------------------|
D-----------------------------------------------------------|
A----4--2--4-------0-----------4-2-4------0---2-------------|
E---------------------2-4-------------------2---4-----------|
B--2----------2-3---------3--2--------2-3-------------------|

G------------------------------------------------------|
D------------------------------------------------------|
A----4--2--4------4-4-2-4-4-----4--2--4------4-4-2-4-4-|
E------------------------------------------------------|
B--2----------2-2-----------2----------2-2-------------|

G------------------------------------|
D------------------------------------|
A----4--2--4------4-4-2-4-4----------|
E------------------------------------|
B--2----------2-2------------2~~~----|

"koe mo denai kurai ni... sonna ima ni hitori to kidzuku"
Repeat till the japanese line is done.
G-----------------------------------------------------------|
D-----------------------------------------------------------|
A-----------------------------------------------------------|
E-5-5-5-5-5-5-5-5-7-7-7-7-5-5-5-5-5\2\3---------------------|
B-----------------------------------------------------------|


G---------------------------------------------------------------------|
D---------------------------------------------------------------------|
A--------------0----------------0-0-0-0-0-0-0-0-----------------------|
E------0-X-X-0---2-4-0-2----4-0-----------------2-4-4-4-4-4-4-4-4-4---|
B--2-4--------------------2-------------------------------------------|

G----------------------------------------------------------------------|
D----------------------------------------------------------------------|
A---------------------------------------------------------2-2-2-2------|
E---------------------------------0-0-0-0-0-0-0-0-0-0-0-0--------------|
B-2-2-2-2-2-2-2-2-2-2-2-2-2-2-2-2--------------------------------------|

G-----------------------------------------------------------|
D-----------------------------------------------------------|
A-------------------------2-2-2-2---------------------------|
E-0-0-0-0-0-0-0-0-0-0-0-0-----------------------------------|
B-----------------------------------------------------------|


G---------------------------------------------------------------|
D---------------------------------------------------------------|
A-------------------------2-2-2-2-------------------------------|
E-0-0-0-0-0-0-0-0-0-0-0-0---------4-4-4-4-4-4-4-4-4-4-4-4-4-----|
B---------------------------------------------------------------|

G---------------------------------------------------------------|
D---------------------------------------------------------------|
A---------------------------------------------------------------|
E-0-0-0-0-2-2-2-2-2-2-2-2-2-2-2-2---------4-4-4-4-2-4-X-X-4-4---|
B---------------------------------2-2-2-2-----------------------|

G---------------------------------------------------------------|
D---------------------------------------------------------------|
A--4-4-X-X-4-4--------------------------------------------------|
E-------------------------0-2-0---------------------------------|
B---------------2-X-X-X-2---------------------------------------|
Suggest correction
Give kudos to tab author, rate the tab!
1 2 3 4 5
comments
print report bad tab
1 comment total.
0 reply
isaachary 51 wrote on August 14 2008, 03:08 pm

Very good. Only thing I would correct is maybe putting a little more instructions in on like when to stop playing a riff...I got a little lost the first couple times through. But overall very good.

guest
You may want to rate the tab now too:
select rating
Please do not post tabs as comments. Select "correction" instead!