Oops, an error
Loading. Please wait.

Conceived Sorrow Bass Tab

version 1
version 1

Whole song

Interactive

1,692 views 1 this week
no commentswrite comment
1 2 3 4 5
please rate
add to favorites
launch autoscroll
font size
0
reset
guitar tuner
Tab Pro tools
  • play this tab
  • loop segment
  • change instrument
  • show fretboard
  • metronome
Autoscroll
slow
fast
+/-
esc
set tempo
stop
Difficulty
Tuning
intermediate
E A D G B E
This is my first tab.
Hoping it came out at least half-decent.
If you have any queries about this tab, or want to request any more tabs, contact me;
R_to_the_core@hotmail.co.uk

Tuning; C# F# B E
~ = Let Ring
[Intro (0:36)]

E |--------|--------|--------|--------|--------|--------|
B |--------|--------|---5-4--|--------|--------|5-4-----|   
F#|--------|--------|--------|--------|--------|--------|
C#|7-7-7-7-|5-7-7-7-|-5-----7|-7-7-7-5|-7-7-7-5|--------|

(0:47)
E |--------|--------|--------|--------|--------|--------|--------|--------|
B |--------|--------|--------|--------|--------|--------|--------|--------|
F#|--------|--------|--------|--------|--------|--------|--------|--------|
C#|7-7-7-5-|10-5-7-7|-7-5-10-|5-2-2-2-|0-5-0-2-|2-2-0-5-|0-7-7-7-|5-10-5-7|

E |--------|--------|--------|--------|--------|--------|--------|--------|
B |--------|--------|--------|--------|--------|--------|--------|--------|
F#|--------|--------|--------|--------|--------|--------|--------|--------|
C#|7-7-5-10|5-2-2-2-|0-5-0-2-|2-2-2-0-|5-0-7-7-|7-5-10-5|7-7-7-5-|10-5-2-2|

E |--------|--------|--------|--------|--------|--------|--------|--------|
B |--------|--------|--------|--------|--------|--------|--------|--------|
F#|--------|--------|--------|--------|--------|--------|--------|--------|
C#|2-0-5-0-|2-2-2-0-|5-0-7-7-|7-5-10-5|-7-7-7-5|10-5-2-2|2-0-5-0-|2-2-2-0-|

E |--------|--------|--------|--------|--------|--------|--------|--------|
B |--------|--------|--------|--------|--------|--------|--------|--------|
F#|--------|--------|--------|--------|--------|--------|--------|--------|
C#|5-0-7---|7-7-7-5-|10-5-7-7|-7-5-10-|5-2-2-2-|0-5-0-2-|2-2-0-5-|0-7-7-7-|

E |--------|--------|--------|--------|--------|--------|--------|--------|
B |--------|--------|--------|--------|--------|--------|--------|--------|
F#|--------|--------|--------|--------|--------|--------|--------|--------|
C#|5-10-5-7|-7-7-5--|10-5-2-2|-2-0-5-0|-2-2-2-0|5-0-7-7-|7-5-10-5|7-7-7-5-|

E |--------|--------|--------|--------|--------|--------|--------|--------|
B |--------|--------|--------|--------|--------|--------|--------|--------|
F#|--------|--------|----4-4-|---5-5-4|-2-4-2-2|0-2-----|------0-|2-5-4-5-|
C#|10-5-7-7|7-5-10-5|7-7-----|0-3-----|--------|----0-3-|3-2-3---|--------|

E |--------|--------|--------|--------|--------|--------|--------|--------|
B |--------|4-2-----|--------|--------|--------|--------|--------|--------|
F#|4-5-4---|----0-0-|2~------|--------|--------|--------|--------|--------|
C#|------2-|--------|--------|7-7-7-5-|10-5-7-7|-7-5-10-|-5-2-2-2|0-5-0-2-|

E |--------|--------|--------|--------|--------|--------|--------|--------|
B |--------|--------|--------|--------|--------|--------|--------|--------|
F#|--------|--------|--------|--------|--------|--------|--------|--------|
C#|2-2-2-0-|5-0-7-7-|7-5-10-5|7-7-7-5-|10-5-7-2|-2-2-0-5|0-2-2-2-|0-5-0-7~|

                                             [Kyo's solo]
E |--------|--------|--------|--------|--------|--------|--------|--------|
B |--------|--------|--------|--------|--------|--------|--------|--------|
F#|--------|--------|--------|--------|--------|--------|--------|--------|
C#|7-7-7-7-|5-7-7-7-|7-5-7-7-|7-7-5-7-|5-3~----|--------|--------|--------|

E |--------|--------|--------|--------|--------|--------|--------|--------|
B |--------|--------|--------|--------|--------|--------|--------|4-2-----|
F#|----4-4-|---5-5-4|-2-4-2-2|0-2-----|------0-|2-5-4-5-|4-5-4---|----0-0-|
C#|7-7-----|0-3-----|--------|----0-3-|3-2-3---|--------|------2-|--------|

E |--------|--------|--------|--------|----2---|--------|--------|--------|
B |--------|--------|------0-|2-0-2-0-|------5-|4-5-4---|------4-|--------|
F#|2-------|--------|--5-4---|--------|0-0-----|------5-|5-4-4---|5-5-4-4-|
C#|--7-7-7-|7-7-7-7-|3-------|--------|--------|--------|--------|--------|

E |--------|--------|--------|--------|--------|--------|--------|--------|
B |4-------|--4-2---|--------|--------|--------|--------|--------|--------|
F#|--2-4-4-|------0-|0-2-----|--------|--------|---10-9-|--------|--------|
C#|--------|2-------|------7-|7-7-5-10|-5-7-7-7|-5------|7-7-7-5-|10-5-7-7|

E |--------|--------|--------|--------|--------|--------|--------|--------|
B |--------|--------|--------|--------|--------|--------|--------|--------|
F#|--------|--------|--------|--------|--------|--------|--------|--------|
C#|7-5-10-6|--------|--------|--------|--------|--------|--------|--------|
comments
We did not receive enough feedback on this tab! Please rate:
print report bad tab
1 2 3 4 5
I want to post or [tab]
guest
You may want to rate the tab now too:
select rating
Please do not post tabs as comments. Select "correction" instead!