Oops, an error
Loading. Please wait.

Dozing Green Bass Tab

version 1
version 1

Whole song

Interactive

2,705 views 3 this week
no commentswrite comment
1 2 3 4 5
please rate
add to favorites
launch autoscroll
font size
0
reset
guitar tuner
Autoscroll
slow
fast
+/-
esc
set tempo
stop
Help us to improve Ultimate-Guitar.com Take our survey!
×
Contributor
Tuning
C# G# C# F# A# D#
Dir en Grey - Dozing Green BASS.
Tabbed by Bassy Hayzy


.:HEAVY RIFF:.
 G|---------------------------|--------------------------|
 D|---------------------------|--------------------------|
 A|-4444-7---444-7------7-h9--|--4444--7---b9\7--7\2-----|
C#|---------------------------|--------------------------|x2


.:VERSE 1:.
 G|---------------------------|
 D|---------------------------|
 A|---------------------------|
C#|--00---0-h3---0-x-0--------|x 12


.:PRE CHORUS 1:.
 G|-------------------------------|
 D|-------------------------------|
 A|-------------------------------|
C#|---5~---5-3-5/7~----7-87-------|


.:CHORUS:.
 G|-----------------------------------------------------|
 D|------------6----------------------------------------|
 A|------44-77------------------------------------------|
C#|--0~~----------8~~--887--5~-5-5-5---3/7--7-7---88x7--|x2
    C#5          A5         F#5        G#5


.:AFTER CHORUS:.          .:VERSE 2:.
 G|---------------------|--------------------|      |-----------|
 D|-------6--4~------4~-|.------------------.|      |-----------|
 A|--------------7~-----|.-44--4--4---2-h3-h.|      |--444------|
C#|-0~~~~~--------------|--------------------|x8    |-------b7--|

HEAVY RIFF  x4


.:BRIDGE:.
 G|-----------------------------------------------------|
 D|-----------------------------------------------------|
 A|-----------------------------------------------------|
C#|--8-8-x8-88---7-7-x7-77---5-5-x5-55----5-5--777-77---|
    A5          G#5         F#5          F#5   G#5


.:PRE CHORUS 2:.
 G|----------|
 D|----------|
 A|----------|
C#|--0/7-77--|


CHORUS  x3


AFTER CHORUS x1


.:INTERLUDE:.
 G|---------------------------------------------------------|
 D|---------------------------------------------------------|
 A|-------------------------4-------------------------------|
C#|--00---x00---x00---x00-7---5-00--0-h3---x00---x00--------|


HEAVY RIFF  x4


.:FINISH:.
 G|---------------------|
 D|---------------------|
 A|---------------------|
C#|--000-000-000-000-0--|
comments
We did not receive enough feedback on this tab! Please rate:
print report bad tab
1 2 3 4 5
I want to post or [tab]
guest
You may want to rate the tab now too:
select rating
Please do not post tabs as comments. Select "correction" instead!