Oops, an error
Loading. Please wait.

Dozing Green Tab

version 1
version 1

Intro

Whole song

Interactive

4,009 views 1 this week
no commentswrite comment
1 2 3 4 5
please rate
add to favorites
launch autoscroll
font size
0
reset
how to read this tab
guitar tuner
Autoscroll
slow
fast
+/-
esc
set tempo
stop
Help us to improve Ultimate-Guitar.com Take our survey!
×
Author
Intro

--------------------------------|----------------------------------------------|
--------------------------------|----------------------------------------------|
--------------------------------|----------------------------------------------|
--------------------------------|----------------------------------------------|
--------------------------------|-----------------8h10-------------------------|
-0-0-10-0-12-0-0-10-12-0-0--8/10|-0-12-12-0-10-12-------0-12p10-12p10-10-12----|

                                                                       ^
--------------------------------|-------------------------------------/-\--------|
--------------------------------|-------------------------------------|-|--------|
--------------------------------|-------------------------------------|-|--------|
--------------------------------|-------------------------------------|-|--------|
--------------------------------|-----------------8h10----------------|-|--------|
-0-0-10-0-12-0-0-10-12-0-0--8/10|-0-12-12-0-10-12-------0-12-10-12-10---v--------|
                                                                    Full bend
I will have the rest of the song up soon! :p

tuning:
D#5
A#4
F#4
C#4
G#3
C#3
Suggest correction
Give kudos to tab author, rate the tab!
1 2 3 4 5
comments
print report bad tab
guest
You may want to rate the tab now too:
select rating
Wanna post a correction for this tab? Suggest correction