Oops, an error
Loading. Please wait.

Dozing Green Bass Tab

version 2
version 2

Whole song

Interactive

1,835 views 1 this week
no commentswrite comment
1 2 3 4 5
excellent!
x 1
add to favorites
launch autoscroll
font size
0
reset
guitar tuner
Tab Pro tools
  • play this tab
  • loop segment
  • change instrument
  • show fretboard
  • metronome
Autoscroll
slow
fast
+/-
esc
set tempo
stop
Contributor
Difficulty
Tuning
advanced
C# G# C# F# A# D#
-------------------------------------------------------------------------------
			     Dozing Green - Dir en grey
-------------------------------------------------------------------------------

Tabbed By : DeadxFreedom
e-mail: R_to_the_core@hotmail.co.uk

Tuning: C#G#C#F# (Drop D, 1/2 step down)
Tempo: 100BPM

Intro (Bass enters 0:20)

   SSSSSS SS+S SE SSS S SSSSSSSS S  SE SSS S
F#|--------------------|--------------------|
C#|--------------------|--------------------| x 2
G#|-----5/7------------|-----7-8/10-55-5-3/5|
C#|00000---0---00-503/5|00000-0---------0---|

Verse

   SSSS E SSSSSSSSE         SSSS E SSSSSSQ      SSSS E SSSSSSSSE         SSSS E SSSSSQ 
F#|----------------|     F#|---------------| F#|----------------|     F#|-------------|
C#|----------------| x 3 C#|---------------| C#|----------------| x 3 C#|-------------|
G#|-------------50-|     G#|-------------5\| G#|-------------50-|     G#|-------------|
C#|0000---23-0-0--3|     C#|0000---23-0-0--| C#|0000---23-0-0--3|     C#|0000---23-0--|

                                                               [ 3 ]
   SSSS E SSSSSSE E SSSS E SSSSSSSSE SSSS E SSSSSSEE SSSS E SS E E E SSE H+Q E E H+E+S SS E+S
F#|----------------|----------------|---------------|-------------------|-------|-----------|
C#|----------------|----------------|---------------|-------------------|-------|-------4-7\|
G#|-------------5--|-------------50-|---5-------50--|----------------50-|-------|------0----|
C#|0000---23-000---|0003---03-0-0---|000----23-0--3-|0000---23-0-0-0---3|5---3/5|7----------|

Chorus
   SSSSSS S S S E S S S S  E  E SS S SSS SSSS  S  S  E
F#|-----------------9-10---14|------------------------|
C#|-------------10------10---|------------------------|
G#|---------12---------------|--------------10/12\10-8|
C#|000000-12-----------------|8-88-7/8-7/88-----------|

   E SS  E S SS E SSS E E SS SS SSS E S E E  SSSSSSS S SS  S SS S E
F#|--------------------|--------------------|----------------9--10--|
C#|-----------------5-3|--------------------|------12---10/12-10----|
G#|--------------------|3-33-31/33----------|--------12-----------12|
C#|5-55--5-3/5--5-35---|------------7-7-7-10|000000-----------------|

   E SS E S S+S SS S S S  E  E SS  E S S+S SSS S  E  E SS SS SSS E S E S S
F#|-------------------------|-----------------------|---------------------|
C#|-----8-------------------|-------------------5-3-|---------------------|
G#|----------------7/8\7----|-----------------------|3-33-31/33-----------|
C#|8-88---7/8---88--------8-|5-55--5-3/5---553/5----|------------7-7-7-5/7|

   E SSS E S+S S E E S S E SSS E S+S S E E E E E E E E E E  E E E E E E E SSS S
F#|---------------------|-------------------|----------------|-----------------|
C#|---------------------|8-888-8-8---8-8-7--|----------------|-----------------|
G#|------------------7/8|------------------4|5-------------/4|5------------03/4|
C#|8-888-8-8---8-8-8----|-------------------|--0---0---0-----|--0---0---0------|

   E E E E E E SSS S E SS E E E  S  S  E  E  E  E E E E E SSS S E E E E E E SSS S
F#|-----------------|-----------------------|------------------|-----------------|
C#|-----------------|-----------------------|------------------|-----------------|
G#|5------------03/4|5------5---------------|--------------03/4|5------------03/4|
C#|--0---0---0------|--23-0---x/-10-11-12-10|12-0---0---0------|--0---0---0------|

                               [ 3 ]      Freeform vocals (1:51)
   E E E E E E SSS S E E  Q    E E E  Q   E SSS S SSSS E Q S E SS S SS E E E E
F#|-----------------|--------------------|----------------|--------------------|
C#|-----------------|--------------------|----------------|--------------------|
G#|5------------03/4|5/12------5-5-5-----|----5/6\53-5-5--|-----5/6\53---------|
C#|--0---0---0------|-----12\------------|0--0------0-----|0-0-0-------0---0---|

   S E S S S S S S S S S S S S S S E S  S  S S S S  S E  S  S   S  S
F#|-----------------------------|-------------------------------------|
C#|-----------------------------|------------------------12\10--10/12-|
G#|------5/6\5-3-5--------------|--------------8/10-------------------|
C#|0-0-0-----------0-0-5-0-0-3/5|0-0-0-12/10-0------0-0---------------|

   E E E S S+S S E E S S E E E S S+S S S S S S S E E E S S+S S E E S S
F#|---------------------|-----------------------|---------------------|
C#|---------------------|------------3-5--------|---------------------|
G#|----5-3-5-----5-5-3/5|----5-3-5-------3-3-1/3|----5-3-5-----5-5-3/5|
C#|0-0---------0--------|0-0--------------------|0-0---------0--------|

             [ 3 ] [ 3 ]
   E E E S S E E E E E E  Q E E+Q E E   E+S S E S S+S E S E S S
F#|---------------------|-------------|------------------------|
C#|---------------------|-------------|------------------------|
G#|----5-3-5-3-3-0-0-0-0|-------------|------------------------|
C#|0-0------------------|-8-8-8---8-8-|-7---7-7-5h7---7-7-7-5/7|

                                         [  3  ]
   E E E SS S E S E S S   E  E E  E E  E E  E  E   E   E  Q  H  
F#|---------------------|-------------------------|------------|
C#|---------------------|-------------------------|------------|
G#|---------------------|-------------------------|------------|
C#|8-8-8-88---8-8-8-7/10|-10-7-10-7-10-7-10-10-10-|12----------|

     W      W     H S  E S E E    Q+E  SS E Q  E  E+S S  E  S  S S E s S S E
F#|------|------|---------------|----------------|---------------------------|
C#|------|------|---------------|----------------|---------------------------|
G#|------|------|---------------|----------------|------/12----------------8\|
C#|------|------|------7-7-7-10-|-8----88---8--8-|7---7-----12-7---7-5/7-7---|

   Q+E SS E Q  S S  E SS E SS S E S E E SSSSSS S  S  S S  S  S  S  S   E
F#|---------------|--------------------|---------------------------------|
C#|---------------|--------------------|---------------10/14-14----15--19|
G#|---------------|-3-33-3-33----------|----------12------------15-------|
C#|5---55---5--3/5|-------------7-7-7-5|000000-12------------------------|

   E SS E SS+S S S S  S  S  E  E+S S S S S S S E S S S E  E+S S E SS S E S E E
F#|---------------------------|--------------------------|---------------------|
C#|---------------------------|--------------------------|---------------------|
G#|----------------10/12\10-8\|----------3-------------8\|3---3-3-33-----------|
C#|8-88-8-78---8--------------|5---5-3/5---5---5-3/5-5---|-------------7-7-7-10|
  
   SSSSSS S  S  S S  S  S  S  S  E  SSSS S S  S  S+S E S S S E
F#|--------------------------------|---------------------------|
C#|---------------10/14-14----15---|----------10-8---8-7h8---8\|
G#|----------12------------15----12|-----8/10--------------5---|
C#|000000-12-----------------------|8888-----------------------|

   E+S S E S S S E S S S E  E+S S E SS S E S E S S E SS E SS+Q  E S S
F#|------------------------|----------------------|-------------------|
C#|----------5-------------|----------------------|-------------------|
G#|--------3-------------8\|3---3-3-33------------|---------------8/10|
C#|5---5-5-------5-3/5-5---|-------------7-7-7-5-7|8-88-8-88----8-----|

    H+E E E E E SS Q Q E+S S E SS  Q  H  E SS Q Q E+S S E SS  Q Q S S E
F#|----------|--------------|-----------|--------------|---------------|
C#|-8---8-7--|--------------|-----------|--------------|---------------|
G#|---------4|--------------|-----------|--------------|----------5----|
C#|----------|0-00---------2|0-00-------|0-00---------2|0-00--------3-2|
 
                                [Outro]
   E SS E SS H  SS E Q H    W   SSSS E  S  S+S S E  S  S  S  S
F#|------------|---------|-----|-------------------------------|
C#|------------|---------|-----|-------------------------------|
G#|------------|---------|-----|-------------------------------|
C#|0-00---03---|00-------|-----|0000-x/-10-12--0-12-12-12-10h12|

   SSSS E  S  S+S S E  S  S  S S  SSSS E  S  S+S S E  S  S  S  S
F#|------------------------------|-------------------------------|
C#|------------------------------|-------------------------------|
G#|---------------8h10-----------|-------------------------------|
C#|0000-x/-10h12-------10-10-8h10|0000-x/-10-12--0-12-12-12-10h12|

   SSSS E  S  S+S S S  S  E  S S  SSSS E S S+S S E  E  S  S
F#|------------------------------|--------------------------|
C#|------------------------------|--------------------------|
G#|---------------8h10-10--------|--------------------------|
C#|0000-x/-10-12----------10-8h10|0000-12--12--x-12-12-10h12|

               [ 3 ] [ 3 ] 
   SSSS S S SS E E E E E E  SSSS E  S S+S S  E  S  S S  S
F#|------------------------|------------------------------|
C#|--------------------2---|------------------------------|
G#|-----5/7------5-3-----3-|------------------------------|
C#|0000-----00-0-----0-----|0000-12-0-12--12-12-12-0-10h12|

                         [  3   ]           [ 3  ]  [  3  ]
   SSSS E  S S+S S  S S  E  E   E  SS S  S  E E  E  E  E  E
F#|-------------------------------|-------------------------|
C#|----------------------8--10--12|--------------------10-13|
G#|-----------------8/10----------|-----------10-11-12------|
C#|0000-12-0-12--12---------------|00-10h12-0---------------|

Freeform Vocals
    W    W    W    W
F#|----|----|----|----|
C#|----|----|----|----|
G#|----|----|----|----|
C#|----|----|----|----|


| [ 3 ] Triplet
| -  Rest
| W  whole note
| H  Half note
| Q  Quarter note
| E  Eight note
| S  Sixteenth note
| /  slide up
| \  slide down
| h  hammer-on
| p  pull-off
| ~  vibrato
| +  harmonic
| x  Mute note
===============================================================================
comments
We did not receive enough feedback on this tab! Please rate:
print report bad tab
1 2 3 4 5
I want to post or [tab]
guest
You may want to rate the tab now too:
select rating
Please do not post tabs as comments. Select "correction" instead!