Oops, an error
Loading. Please wait.

Final Tab

version 1
version 1

Whole song

Interactive

10,011 views 21 this week
no commentswrite comment
1 2 3 4 5
please rate
add to favorites
launch autoscroll
font size
0
reset
how to read this tab
guitar tuner
Autoscroll
slow
fast
+/-
esc
set tempo
stop
Help us to improve Ultimate-Guitar.com Take our survey!
×
Contributor
Artist: Dir En Grey
Song: The Final
Tuning: Drop D down 1 half step
Intro:
Guitar 1 (Die):
|--------------------------------------------------|
|--------------------------------------------------|
|--6---------(6)-----------(6)------------(6)------|
|--4---------(4)-----------(4)------------(4)------|
|--4---------(4)-----------(4)------------(4)------|
|--------------------------------------------------|
Guitar 2 (Kaoru):
|--------------------------------------------------|
|--------------------------------------------------|
|--6------6-------6-----------6------6-----6-------|
|--------------------------------------------------|
|----4------4-------4-4-4-------4------4-----4-4-4-|x2
|------4------4-----4-4-4---------4------4---4-4-4-|
Guitar 2 (cont.)
|--------------------------------------------------|
|--7------7-------7-----------7------7-----7-------|
|--6------6-------6-----------6------6-----6-------|
|--------------------------------------------------|
|----4------4-------4-4-4-------4------4-----4-4-4-|
|------4------4-----4-4-4---------4------4---4-4-4-|

|--------------------------------------------------|
|--8------8-------8-----------7------7-------------|
|--6------6-------6-----------6------6-------------|
|--------------------------------------------------|
|----4------4-------4-4-4-------4-4----4-4---------|
|------4------4-----4-4-4-------4-4----4-4---------|

Bridge:
Guitar 1:
|------------------------------------7-------------|
|--10-------9-----------10-10-10-----------9-------|
|----------------9---------------------------------|
|--------------------------------------------------|
|--------------------------------------------------|x2
|--------------------------------------------------|

Guitar 2:
|--------------------------------------------------|
|--------------------------------------------------|
|--------------------------7-7-7-7-7-(7)-7-7-7-----|
|--4-4-4-4---4-(4)-4-4-4---7-7-7-7-7-(7)-7-7-7-----|
|--4-4-4-4---4—(4)-4-4-4---5-5-5-5-5-(5)-5-5-5-----|
|--4-4-4-4---4—(4)-4-4-4---------------------------|

|--------------------------------------------------|
|--------------------------------------------------|
|--------------------------------------------------|
|--7-7-7-7---7-(7)-7-7-7---9-9-9-9-9-(9)-9-9-9-----|
|--7-7-7-7---7-(7)-7-7-7---7-7-7-7-7-(7)-7-7-7-----|x2
|--7-7-7-7---7-(7)-7-7-7---9-9-9-9-9-(9)-9-9-9-----|

Both Guitars:
|-------------------------|    |------------------------|
|-------------------------|    |------------------------|
|-------------------------|    |-----------4------------|
|--2-4-4-4-5-4-(4)-4-4-4--|    |--2-4-4-4--2------------|
|--2-4-4-4-5-4-(4)-4-4-4--|x2    |--2-4-4-4--2----------|
|--2-4-4-4-5-4-(4)-4-4-4--|    |--2-4-4-4--2------------|
Verse:
Guitar 1:
|--4----5----7--9-------10--------------------------|
|--2----5----5--10------10--------------------------|
|--2----6-------7-------7---------------------------|
|--2----4-------------------------------------------|
|---------------------------------------------------|x2
|---------------------------------------------------|

Guitar 2: (comes in second time)
|------------------------------------------------12-|
|--14-14-14--12-12-12--------14-14-14--12-12-12-----|
|----------------------13---------------------------|
|---------------------------------------------------|
|---------------------------------------------------|
|---------------------------------------------------|

Chorus: Both Guitars play Guitar 2’s bridge

Verse 2: Guitar 1 plays verse 1 and Guitar 2 plays intro

Bridge:
Both Guitars:
|--------------------------------------------------|
|--------------------------------------------------|
|--------------------------------------------------|
|--5-4---4---5-4---4-----5-4---4---5-4---4---------|
|--5-4-x-4-x-5-4-x-4-----5-4-x-4-x-5-4-x-4---------|x4
|--5-4-x-4-x-5-4-x-4-----5-4-x-4-x-5-4-x-4---------|

Third time Guitar two plays second half of intro

Outro:
Both Guitars:
|-------------------------------------------------------------------------------------|
|-------------------------------------------------------------------------------------|
|------------------------7-7-7-7-7-(7)-7-7-7------------------------------------------|
|--4-4-4-4-4-(4)-4-4-4---7-7-7-7-7-(7)-7-7-7--7-7-7-7-7-(7)-7-7-7--9-9-9-9-9-(9)-9-9-9|
|--4-4-4-4-4-(4)-4-4-4---5-5-5-5-5-(5)-5-5-5--7-7-7-7-7-(7)-7-7-7--7-7-7-7-7-(7)-7-7-7|
|--4-4-4-4-4-(4)-4-4-4------------------------7-7-7-7-7-(7)-7-7-7--9-9-9-9-9-(9)-9-9-9|
repeat 6 times
then:
Guitar 1
|-------------------------------------------------------------------------------------|
|-------------------------------------------------------------------------------------|
|--7-7-7-7-7-(7)-7-7-7---9-9-9-9-9-(9)-9-9-9------------------------------------------|
|--7-7-7-7-7-(7)-7-7-7---9-9-9-9-9-(9)-9-9-9--4-4-4-4-4-(4)-4-4-4--4-4-4-4-4-(4)-4-4-4|
|--5-5-5-5-5-(5)-5-5-5---7-7-7-7-7-(7)-7-7-7--4-4-4-4-4-(4)-4-4-4--4-4-4-4-4-(4)-4-4-4|
|---------------------------------------------4-4-4-4-4-(4)-4-4-4--4-4-4-4-4-(4)-4-4-4|

|-------------------------------------------------------------------------------------|
|-------------------------------------------------------------------------------------|
|--7-7-7-7-7-(7)-7-7-7---9-9-9-9-9-(9)-9-9-9--7-7-7-7-7-(7)-7-7-7---------------------|
|--7-7-7-7-7-(7)-7-7-7---9-9-9-9-9-(9)-9-9-9--7-7-7-7-7-(7)-7-7-7--2-2-2-2-2-(2)-2-2-2|
|--5-5-5-5-5-(5)-5-5-5---7-7-7-7-7-(7)-7-7-7--5-5-5-5-5-(5)-5-5-5--2-2-2-2-2-(2)-2-2-2|
|------------------------------------------------------------------2-2-2-2-2-(2)-2-2-2|

Breakdown
comments
We did not receive enough feedback on this tab! Please rate:
print report bad tab
1 2 3 4 5
I want to post or [tab]
guest
You may want to rate the tab now too:
select rating
Please do not post tabs as comments. Select "correction" instead!