Oops, an error
Loading. Please wait.

Obscure Bass Tab

version 1
version 1

Whole song

Interactive

6,191 views 6 this week
1 commentread comment
1 2 3 4 5
2 more votes to show rating
add to favorites
launch autoscroll
font size
0
reset
guitar tuner
Autoscroll
slow
fast
+/-
esc
set tempo
stop
Help us to improve Ultimate-Guitar.com Take our survey!
×
Author
Difficulty
Hey its me again. here is another awsome song so enjoy.

Verse (those are 3 then 1)
g[---------------------------------]
d[-31313131313131313131313131313131]
a[---------------------------------]
e[---------------------------------]

g[---------------------------------]
d[1-2-1-2-1-2-1-2-1-2-1-2-1-2-1-2-1]
a[---------------------------------]
e[---------------------------------]
Then pause untill 1:09

g[---------------------------------]x2
d[1-2-1-2-1-2-1-2-1-2-1-2-1-2-1-2--]
a[---------------------------------]
e[---------------------------------]

g[---------------------------------]
d[---------------------------------]
a[--14(x12)--12(x12)--15(x12)------]
e[---------------------------------]

g[-0-------------------------------]x3
d[--3111111113333333333------------]
a[---------------------------------]
e[---------------------------------]
    
g[------]--------------------------]do the second half a couple times
d[-0-2--]--0-0-2-0-0-2-0-0-2-0-0-2-]
a[------]--------------------------]
e[------]--------------------------]

g[---------------------------------]do this a couple times to you have to 
d[-2-1-0-0-2-1-0-0-2-1-0-0-2-1-0-0-]listen for the change
a[---------------------------------]
e[---------------------------------]

outro
g[--0------------------------------]x2
d[-------3--------1----------3-----]
a[---------------------------------]
e[---------------------------------]

well there you go. You have to listen for the timming its pretty hard.PEACE 
Suggest correction
Give kudos to tab author, rate the tab!
1 2 3 4 5
comments
print report bad tab
1 comment total.
0 reply
RyKnowTheBeast 10 Jan 05, 2008 12:51 AM

You don't even have the slides in the bass line. I'm sorry man, this tab is horrible, albeit it is the only one.

guest
You may want to rate the tab now too:
select rating
Wanna post a correction for this tab? Suggest correction