Oops, an error
Loading. Please wait.

Pledge Bass Tab

version 1
version 1

Whole song

Interactive

1,056 views 1 this week
1 commentread comment
1 2 3 4 5
please rate
add to favorites
launch autoscroll
font size
0
reset
guitar tuner
Autoscroll
slow
fast
+/-
esc
set tempo
stop
Help us to improve Ultimate-Guitar.com Take our survey!
×
Contributor
its kinda difficult to hear toshiya's bass exactly in this song
but I think I hit pretty close. enjoy ;)
band: dir en grey
song: THE PLEDGE
tuning: C#G#C#F# (drop D+half step down)



4\4 time
   intro Fig.1
    E+S H+Q+S     E+S H+Q+S     E+S H+Q+S     E+S H+S   Q
F#|-------------|-------------|-------------|--------------|
C#|-------------|-------------|-------------|--------------|
G#|-2---2-------|-------------|-------------|--------------|
C#|-------------|-4---4-------|-2---2-------|-4---4-----4--|



                                                  end Fig.1
    E+S H+S   Q    E+S H+Q+S      E+S H+Q+S     W
F#|--------------|--------------|-------------|------------||
C#|--------------|--------------|-------------|------------||
G#|--------------|--------------|-------------|------------||
C#|-9---9-----9s\|-0---0--------|-2---2-------|-4----------||



   Riff A   
    E+S E+S E  E+S S Q    E+S E+S E  E+S S Q
F#|---------------------|----------------------|
C#|---------------------|----------------------|
G#|-2---2---2--2---2----|-2---2---2--2---2-----|
C#|------------------4s\|------------------4---|




    E+S E+S E  E+S S Q    E+S E+S E  Q   E  E
F#|---------------------|----------------------|
C#|---------------------|----------------------|
G#|-2---2---2--2---2----|-2---2---2--2---------|
C#|------------------4s\|----------------4--5--|




    E+S E+S E  E+S S Q    E+S E+S E  E+S S Q
F#|---------------------|----------------------|
C#|---------------------|----------------------|
G#|-2---2---2--2---2----|-2---2---2--2---2-----|
C#|------------------4s\|------------------4---|



                                      end Riff A
    E+S E+S E  E+S S Q    E+S E+S E  E  E  E  E
F#|---------------------|------------------------||
C#|---------------------|------------------------||
G#|-2---2---2--2---2----|-2---2---2--2--2--------||
C#|------------------4s\|------------------4--5--||




    rest
F#|--------||
C#|--------||
G#|--------||
C#|--------||



   Fig.2
    W  hold   Q+E    E  E  E  E  E    W  hold    H+Q       Q
F#|---------|-----------------------|---------|----------------|
C#|---------|-----------------------|---------|----------------|
G#|-2-------|-(2)----4--4-----------|-2-------|-(2)------------|
C#|---------|--------------0--4--5--|---------|----------s/4---|




    W  hold   Q+E    E  E  E  E  E    W  hold    Q+E    E  E  E  E  E
F#|---------|-----------------------|---------|------------------------|
C#|---------|-----------------------|---------|---------------2--0-----|
G#|-2-------|-(2)----4--4-----------|-2-------|-(2)-----------------0--|
C#|---------|--------------0--4--5--|---------|---------4--4-----------|




     W        W         H+Q+E   E    E+S E+S E  E+S E+S E
F#|---------|---------|------------|-----------------------|
C#|---------|---------|------------|-----------------------|
G#|-2-------|-0-------|------------|-4---4---4--4----------|
C#|---------|---------|-5-------4--|----------------4---5--|



                                                 end Fig.2
     W        W         H+Q+E   E    E+S E+S E  E+S  E+S E
F#|---------|---------|------------|-----------------------||
C#|---------|---------|------------|-----------------------||
G#|-2-------|-0-------|------------|-2---2---2--2----------||
C#|---------|---------|-5-------4--|----------------4---2--||



   Riff B
    E+S E+S E  H      E+  E+S E  H      E+S E+S E  H
F#|-----------------|-----------------|-----------------|
C#|-----------------|-----------------|-----------------|
G#|-2---2---2--2----|-----------------|-----------------|
C#|-----------------|-4---4---4--4----|-2---2---2--2----|




    E+S E+S E  E+S E+S E
C#|-----------------------|
F#|-----------------------|
G#|-0---0---0-------------|
C#|------------2---4---5--|



                                                                end Riff B
    E+S E+S E  H      E+S E+S E  H      E+S E+S E  H      E+S E+S E  H
F#|-----------------|-----------------|-----------------|-----------------||
C#|-----------------|-----------------|-----------------|-----------------||
G#|-2---2---2--2----|-----------------|-----------------|-0---0---0--0----||
C#|-----------------|-4---4---4--4----|-5---5---5--5----|-----------------||



   Fig.1
    E+S H+Q+S     E+S H+Q+S     E+S H+Q+S     E+S H+S   Q
F#|-------------|-------------|-------------|--------------|
C#|-------------|-------------|-------------|--------------|
G#|-2---2-------|-------------|-------------|--------------|
C#|-------------|-4---4-------|-2---2-------|-4---4-----4--|



                                                  end Fig.1   2\4 time
    E+S H+S   Q    E+S H+Q+S     E+S  H+Q+S     W    hold     H
F#|--------------|--------------|-------------|------------||---------||
C#|--------------|--------------|-------------|------------||---------||
G#|--------------|--------------|-------------|------------||---------||
C#|-9---9-----9s\|-0---0--------|-2---2-------|-4----------||-4-------||



   Fig.2
    W  hold   Q+E    E  E  E  E  E    W  hold    H+Q       Q
F#|---------|-----------------------|---------|----------------|
C#|---------|-----------------------|---------|----------------|
G#|-2-------|-(2)----4--4-----------|-2-------|-(2)------------|
C#|---------|--------------0--4--5--|---------|----------s/4---|




    W  hold   Q+E    E  E  E  E  E    W  hold    Q+E    E  E  E  E  E
F#|---------|-----------------------|---------|------------------------|
C#|---------|-----------------------|---------|---------------2--0-----|
G#|-2-------|-(2)----4--4-----------|-2-------|-(2)-----------------0--|
C#|---------|--------------0--4--5--|---------|---------4--4-----------|




     W        W         H+Q+E   E    E+S E+S E  E+S E+S E
F#|---------|---------|------------|-----------------------|
C#|---------|---------|------------|-----------------------|
G#|-2-------|-0-------|------------|-4---4---4--4----------|
C#|---------|---------|-5-------4--|----------------4---5--|



                                                 end Fig.2
     W        W         H+Q+E   E    E+S E+S E  E+S E+S E
F#|---------|---------|------------|-----------------------||
C#|---------|---------|------------|-----------------------||
G#|-2-------|-0-------|------------|-2---2---2--2----------||
C#|---------|---------|-5-------4--|----------------4---2--||



   Riff B
    E+S E+S E  H      E+S E+S E  H      E+S E+S E  H
F#|-----------------|-----------------|-----------------|
C#|-----------------|-----------------|-----------------|
G#|-2---2---2--2----|-----------------|-----------------|
C#|-----------------|-4---4---4--4----|-2---2---2--2----|




    E+S E+S E  E+S E+S E
C#|-----------------------|
F#|-----------------------|
G#|-0---0---0-------------|
C#|------------2---4---5--|



                                                                end Riff B
    E+S E+S E  H      E+S  E+S E H      E+S E+S E  H      E+S E+S E  H
F#|-----------------|-----------------|-----------------|-----------------||
C#|-----------------|-----------------|-----------------|-----------------||
G#|-2---2---2--2----|-----------------|-----------------|-0---0---0--0----||
C#|-----------------|-4---4---4--4----|-5---5---5--5----|-----------------||



   Riff A   
    E+S E+S E  E+S S Q    E+S E+S E  E+S S Q
F#|---------------------|----------------------|
C#|---------------------|----------------------|
G#|-2---2---2--2---2----|-2---2---2--2---2-----|
C#|------------------4s\|------------------4---|




    E+S E+S E  E+S S Q    E+S E+S E  Q   E  E
F#|---------------------|----------------------|
C#|---------------------|----------------------|
G#|-2---2---2--2---2----|-2---2---2--2---------|
C#|------------------4s\|----------------4--5--|




    E+S E+S E  E+S S Q    E+S E+S E  E+S S  Q
F#|---------------------|----------------------|
C#|---------------------|----------------------|
G#|-2---2---2--2---2----|-2---2---2--2---2-----|
C#|------------------4s\|------------------4---|



                                      end Riff A
    E+S E+S E  E+S S Q    E+S E+S E  E  E  E  E
F#|---------------------|------------------------||
C#|---------------------|------------------------||
G#|-2---2---2--2---2----|-2---2---2--2--2--------||
C#|------------------4s\|------------------4--5--||



   Fig.3
    E+S E+S E  Q     Q     E+S E+S E  Q+E   E    E+S E+S E  H
F#|----------------------|---------------------|-------------------|
C#|----------------------|---------------------|-------------------|
G#|----------------------|---------------------|-2---2---2--2------|
C#|-4---4---4--4----4s/--|-4---4---4--4-----2--|-------------------|


    E+S E+S E  E  E  E  E
F#|------------------------|
C#|------------------------|
G#|-2---2---2--2-----------|
C#|---------------2--4--5--|


    E+S E+S E  Q+E    E    E+S E+S E  Q    Q      H+Q     Q
F#|----------------------|------------------------------------||
C#|----------------------|----------------------|-------------||
G#|----------------------|-----------------0----|-------------||
C#|-4---4---4--4------4--|-4---4---4--4---------|-4------4s\--||



   Riff B
    E+S E+S E  H      E+S E+S E  H      E+S E+S E  H
F#|-----------------|-----------------|-----------------|
C#|-----------------|-----------------|-----------------|
G#|-2---2---2--2----|-----------------|-----------------|
C#|-----------------|-4---4---4--4----|-2---2---2--2----|




    E+S E+S E  E+S E+S E
C#|-----------------------|
F#|-----------------------|
G#|-0---0---0--0----------|
C#|----------------4---5--|



                                                                end Riff B
    E+S E+S E  H      E+S  E+S E H      E+S  E+S E H      E+S E+S E  Q  E E
F#|-----------------|-----------------|-----------------|------------------|
C#|-----------------|-----------------|-----------------|------------------|
G#|-2---2---2--2----|-----------------|-----------------|-0---0---0--0-----|
C#|-----------------|-4---4---4--4----|-2---2---2--2----|---------------4-5|



   Riff D
    E+S E+S E  H      E+S E+S E  H      E+S E+S E  H
F#|-----------------|-----------------|-----------------|
C#|-----------------|-----------------|-----------------|
G#|-2---2---2--2----|-5---5---5--5----|-7---7---7--7----|
C#|-----------------|-----------------|-----------------|




    E+S E+S E  E+S E+S E
C#|-----------------------|
F#|-----------------------|
G#|-5---5---5--4---4---0--|
C#|-----------------------|



  
    E+S E+S E  Q   E   E    E+S E+S E  Q    E  E    E+S E+S E  H
F#|-----------------------|-----------------------|-----------------|
C#|-----------------------|-----------------------|-----------------|
G#|-2---2---2--2---0---2--|-----------------------|-4---4---4--4----|
C#|-----------------------|-4---4---4--4----4--0--|-----------------|



           end Riff D
    E+S E+S E  H
F#|------------------||
C#|------------------||
G#|-5---5---5--5-----||
C#|------------------||



   outro Fig.4
    E+S H+S    Q      E+S H+S   Q      E+S H+Q+S      H+Q    Q hold
F#|-----------------|----------------|--------------|------------|
C#|-----------------|----------------|--------------|------------|
G#|-2---2------2s\--|----------------|-2---2--------|-2----------|
C#|-----------------|-4---4-----4s\--|--------------|--------5---|




     E   H+Q+E
F#|--------------||
C#|--------------||
G#|--------------||
C#|-(5)s/9-------||



W  - whole note
H  - Half note
Q  - Quarter note
E  - Eight note
S  - Sixteenth note
s/ - slide up
s\ - slide down

     Tabbed by INFERNUS666
Suggest correction What's this?
You can suggest a correction to this tab. Community and Mods will review your correction and vote to approve or reject it.
comments
We did not receive enough feedback on this tab! Please rate:
print report bad tab
1 2 3 4 5
1 comment total.
0 reply
DeadxFreedom 1,563 wrote on July 26 2009, 07:01 pm

Could you add some kind of key/guide as to what all the symbols mean?
Example, all the H+Q+E stuff

I want to post or [tab]
guest
You may want to rate the tab now too:
select rating
Please do not post tabs as comments. Select "correction" instead!