Oops, an error
Loading. Please wait.

Pledge Tab

version 1
version 1

Whole song

Interactive

4,889 views 6 this week
no commentswrite comment
1 2 3 4 5
please rate
add to favorites
launch autoscroll
font size
0
reset
how to read this tab
guitar tuner
Autoscroll
slow
fast
+/-
esc
set tempo
stop
Help us to improve Ultimate-Guitar.com Take our survey!
×
Author
Dir en grey

The Pledge

Hello, everybody! That's my Version of the Song "The Pledge" by "Dir en grey". It's not 100% 
right but it still sounds very good.

Please Rate it.

It's drop D + 1 half down Tuning

---------
Intro:  |
---------

...........
Guitar 1: :
...........

A:

eb--------------|-------------|------------|-----------|
Bb--------------|-------------|------------|-----------|
Gb-----2-----0--|-----------0-|-----2----0-|-----------|
Db--------------|-----4-------|------------|-----5---4-|
Ab-2-2----2-----|-------------|------------|-----------|
Db--------------|-5-5----5----|-2-2---2----|-4-4---4---|

B:

eb--------------|-------------|------------|-----------|
Bb--------------|-------------|------------|-----------|
Gb-----2-----0--|-----------0-|-----2----0-|-----------|
Db--------------|-----4-------|------------|-----5---4-|
Ab-2-2----2-----|-------------|------------|-----------|
Db--------------|-0-0----0----|-2-2---2----|-4-4---4---|


...............................................................
Guitar 2: He's playing while the 1st guitar is playing part B :
...............................................................

eb-------5-----9--^--7-^----|-------5-----7-^---9-^----|
Bb-------------10-|--7-|----|-------------7-|--10-|----|
Gb--7-7----7---11-|--9-|----|--7-7----7---9-|--11-|----|
Db--------------------------|--------------------------|
Ab--------------------------|--------------------------|
Db--------------------------|--------------------------|


--------------------------------
Breaking Part: (with wah wah)  |
--------------------------------

"^" = Bend    "v"= release

eb--------------|--------------|
Bb-8-8-8--8^----|-8-8-8--8^v---|
Gb-x-x-x--x-----|-x-x-x--x-----|  4x
Db-5-5-5--5-----|-5-5-5--5-----|
Ab--------------|--------------|
Db--------------|--------------|

--------
Verse: |
--------

.............
Guitar 1:   :
.............


eb------------------|-------------------------------------|
Bb------------------|-------------------------------------|
Gb------------------|-------------------------------------|
Db------------------|-------------------------------------|
Ab-9-9-9p7-9-9-9p7--|---9-9-9p7-9-9-9p7--9-9-9p7--9-7-5---|
Db------------------|-------------------------------------|

...............
Guitar 2:     :
...............

eb-----------|-------------------|-------------------|
Bb-----------|--7-7--10p8--7-8-10|--7-7--10p8--7-----|
Gb-----------|-------------------|---------------9-7-|
Db-----------|-------------------|-------------------|
Ab-----------|-------------------|-------------------|
Db-----------|-------------------|-------------------|

.......................................
Guitar 3: He started after a while... :
.......................................

eb-----------------------------------------------------|
Bb-----------------------------------------------------|
Gb-----2-----0--------------0-------2----0----------0--|
Db--------------------4--------------------------4-----|   I think it's 2x
Ab-----------------------------------------------------|
Db-----------------------------------------------------|

-----------------------------------------------
End of Verse a distortion guitar plays that:  |
-----------------------------------------------

eb--------------|
Bb---2----------|
Gb---3----------|
Db---4----------|
Ab--------------|
Db--------------|

---------
Chorus: |
---------
.........
Guitar 1: 
.........

---------------------------------------------------!---------------------------

eb--------------------------------------|--------------------------------------|
Bb--------------------------------------|--------------------------------------|
Gb--------------------------------------|--------------------------------------|
Db-9--9-9---5--5-5---2--2-2---4--4-4----|-9--9-9---0--0-0---2--2-2---4--4-4----|
Ab-9--9-9---5--5-5---2--2-2---4--4-4----|-9--9-9---0--0-0---2--2-2---4--4-4----|
Db-9--9-9---5--5-5---2--2-2---4--4-4----|-9--9-9---0--0-0---2--2-2---4--4-4----|

..........
Guitar 2 :
..........

Playing something like that

eb--------------------------------------|-----------------------------------|
Bb--------------3-----0-----2-----------|-----------------------------2-----|
Gb-------------4-----0-----3------------|------------11--11\9--9\4----3-----|
Db-------(12)-5-----2-----4-------------|-(12)-------x---x-\x--x\x----4-----|
Ab--(12)--------------------------------|------(12)--9---9-\7--7\2----------|
Db--------------------------------------|-----------------------------------|

-------------
Intro again:|
-------------

..........
Guitar 1 :
..........

A:

eb--------------|-------------|------------|-----------|
Bb--------------|-------------|------------|-----------|
Gb-----2-----0--|-----------0-|-----2----0-|-----------|
Db--------------|-----4-------|------------|-----5---4-|
Ab-2-2----2-----|-------------|------------|-----------|
Db--------------|-5-5----5----|-2-2---2----|-4-4---4---|

B:

eb--------------|-------------|------------|-----------|
Bb--------------|-------------|------------|-----------|
Gb-----2-----0--|-----------0-|-----2----0-|-----------|
Db--------------|-----4-------|------------|-----5---4-|
Ab-2-2----2-----|-------------|------------|-----------|
Db--------------|-0-0----0----|-2-2---2----|-4-4---4---|

..............................................................
Guitar 2: He's playing while the 1st guitar is playing part B:
..............................................................

eb-------5-----9--^--7-^----|-------5-----7-^---9-^----|
Bb-------------10-|--7-|----|-------------7-|--10-|----|
Gb--7-7----7---11-|--9-|----|--7-7----7---9-|--11-|----|
Db--------------------------|--------------------------|
Ab--------------------------|--------------------------|
Db--------------------------|--------------------------|


----------
Verse 2: |
----------

.........
Guitar 1:
.........

eb------------------|-------------------------------------|
Bb------------------|-------------------------------------|
Gb------------------|-------------------------------------|
Db------------------|-------------------------------------|
Ab-9-9-9p7-9-9-9p7--|---9-9-9p7-9-9-9p7--9-9-9p7--9-7-5---|
Db------------------|-------------------------------------|

.........
Guitar 2:
.........

eb-----------|-------------------|-------------------|
Bb-----------|--7-7--10p8--7-8-10|--7-7--10p8--7-----|
Gb-----------|-------------------|---------------9-7-|
Db-----------|-------------------|-------------------|
Ab-----------|-------------------|-------------------|
Db-----------|-------------------|-------------------|

......................................
Guitar 3: He started after a while...:
......................................

eb-----------------------------------------------------|
Bb-----------------------------------------------------|
Gb-----2-----0--------------0-------2----0----------0--|
Db--------------------4--------------------------4-----|   I think it's 2x
Ab-----------------------------------------------------|
Db-----------------------------------------------------|

-----------------------------------------------
End of Verse a distortion guitar plays that:  |
-----------------------------------------------

eb--------------|
Bb---2----------|
Gb---3----------|
Db---4----------|
Ab--------------|
Db--------------|

--------
Chorus:|
--------
.........
Guitar 1:
.........

---------------------------------------------------!---------------------------

eb--------------------------------------|--------------------------------------|
Bb--------------------------------------|--------------------------------------|
Gb--------------------------------------|--------------------------------------|
Db-9--9-9---5--5-5---2--2-2---4--4-4----|-9--9-9---0--0-0---2--2-2---4--4-4----|
Ab-9--9-9---5--5-5---2--2-2---4--4-4----|-9--9-9---0--0-0---2--2-2---4--4-4----|
Db-9--9-9---5--5-5---2--2-2---4--4-4----|-9--9-9---0--0-0---2--2-2---4--4-4----|

..........
Guitar 2 :
..........

Playing something like that

eb--------------------------------------|-----------------------------------|
Bb--------------3-----0-----2-----------|-----------------------------2-----|
Gb-------------4-----0-----3------------|------------11--11\9--9\4----3-----|
Db-------(12)-5-----2-----4-------------|-(12)-------x---x-\x--x\x----4-----|
Ab--(12)--------------------------------|------(12)--9---9-\7--7\2----------|
Db--------------------------------------|-----------------------------------|


---------------
Breaking Part:|
---------------

"^" = Bend    "v"= release


eb--------------|--------------|
Bb-8-8-8--8^----|-8-8-8--8^v---|
Gb-x-x-x--x-----|-x-x-x--x-----|  4x
Db-5-5-5--5-----|-5-5-5--5-----|
Ab--------------|--------------|
Db--------------|--------------|

-----------
Interlude:|
-----------

............
Guitar 1:  :
............

eb--------------------------------------|--------------------------------------|
Bb--------------------------------------|--------------------------------------|
Gb--------------------------------------|--------------------------------------|
Db-5--5-5---4--4-4---9--9-9---9--9-9----|-5--5-5---4--4-4---7--5-5---5--5-4----|
Ab-5--5-5---4--4-4---9--9-9---9--9-9----|-5--5-5---4--4-4---7--5-5---5--5-4----|
Db-5--5-5---4--4-4---9--9-9---9--9-9----|-5--5-5---4--4-4---7--5-5---5--5-4----|

.........
Guitar 2:
.........

eb-------------|
Bb---7--10-----|
Gb-9-----------|
Db-------------| 3x
Ab-------------|
Db-------------|

eb-----9----10----9\-----|
Bb--10---10----10--------|
Gb-----------------------|
Db-----------------------|
Ab-----------------------|
Db-----------------------|

eb-----9----10-----------|
Bb--10---10----10---7----|
Gb-----------------------|
Db-----------------------| 2x
Ab-----------------------|
Db-----------------------|

eb-------------|
Bb---7--10-----|
Gb-9-------9---|
Db-------------|
Ab-------------|
Db-------------|

---------
Chorus: |
---------

.........
Guitar 1:
.........
 ---------------------------------------------------!---------------------------

eb--------------------------------------|--------------------------------------|
Bb--------------------------------------|--------------------------------------|
Gb--------------------------------------|--------------------------------------|
Db-9--9-9---5--5-5---2--2-2---4--4-4----|-9--9-9---0--0-0---2--2-2---4--4-4----|
Ab-9--9-9---5--5-5---2--2-2---4--4-4----|-9--9-9---0--0-0---2--2-2---4--4-4----|
Db-9--9-9---5--5-5---2--2-2---4--4-4----|-9--9-9---0--0-0---2--2-2---4--4-4----|


eb--------------------------------------|--------------------------------------|
Bb--------------------------------------|--------------------------------------|
Gb----------7--7-7---9--9-9---7--7-6----|--------------------------------------|
Db-9--9-9---7--7-7---9--9-9---7--7-6----|-9--9-9---0--0-0---2--2-2---4--4-4----|
Ab-9--9-9---5--5-5---7--7-7---5--5-4----|-9--9-9---0--0-0---2--2-2---4--4-4----|
Db-9--9-9-------------------------------|-9--9-9---0--0-0---2--2-2---4--4-4----|

.........
Guitar 2:
.........

-----------------------------------------------------!-----------------------

eb--------------------------------------|-----------------------------------|
Bb--------------3-----0-----2-----------|-----------------------------2-----|
Gb-------------4-----0-----3------------|------------11--11\9--9\4----3-----|
Db-------(12)-5-----2-----4-------------|-(12)-------x---x-\x--x\x----4-----|
Ab--(12)--------------------------------|------(12)--9---9-\7--7\2----------|
Db--------------------------------------|-----------------------------------|

eb--------------------------------------|-------------------------------------|
Bb--------------------------------------|-------------------------------2--0--|
Gb---------------7---9-----7------------|------------11--11\9--7/9\4----3--0--|
Db-------(12)---7---9-----7-------------|-(12)-------x---x-\x--x/x\x----4--2--|
Ab--(12)-------5---7-----5--------------|------(12)--9---9-\7--5/7\2----------|
Db--------------------------------------|-------------------------------------|

--------
Outro: |
--------

.........
Guitar 1:
.........

eb--------------|-------------|------------|-----------|-----|
Bb--------------|-------------|------------|-----------|-----|
Gb-----2-----0--|-----------0-|-----2----0-|-----------|-----|
Db--------------|-----4-------|------------|-----5---4-|-----|
Ab-2-2----2-----|-------------|------------|-----------|--2--|
Db--------------|-5-5----5----|-2-2---2----|-4-4-------|-----|

.........
Guitar 2:
.........

eb--------------|------------|-------5-----/7-^---9-^--|----|
Bb--------------|------------|-------------/7-|--10-|--|----|
Gb--------------|------------|--7-7----7---/9-|--11-|--|----|
Db--------------|------------|-------------------------|----|
Ab--------------|------------|-------------------------|----|
Db--------------|------------|-------------------------|----|


© by tiadoro
Suggest correction
Give kudos to tab author, rate the tab!
1 2 3 4 5
comments
print report bad tab
guest
You may want to rate the tab now too:
select rating
Wanna post a correction for this tab? Suggest correction