Oops, an error
Loading. Please wait.

Red Em Bass Tab

version 1
version 1

Whole song

Interactive

1,528 views 1 this week
no commentswrite comment
1 2 3 4 5
3 more votes to show rating
add to favorites
launch autoscroll
font size
0
reset
guitar tuner
Autoscroll
slow
fast
+/-
esc
set tempo
stop
Help us to improve Ultimate-Guitar.com Take our survey!
×
Difficulty
intermediate
Alright this is Dir En Grey's Red em the tuning is DGCF if you want to do it in just 
then for the ADG just go up 3 frets.

MSN: bassist536@hotmail.com

F------------------------------------------|
C------------------------------------------|
G------------------------------------------|
D-0-0-0-0-3-3-5-5-7-7--8-8-8-8-7-7-5-5-7-7-|

F----------------------------------------------|
C----------------------------------------------|
G----------------------------------------------|
D-0-0-0-0-3-3-5-5-7-7-8-8-X-10-8-10-8-10-10-10-|

F------------------------------------------|
C------------------------------------------|
G------------------------------------------|
D-0-0-0-0-3-3-5-5-7-7--8-8-8-8-7-7-5-5-7-7-|

F-------------------------------------------------|
C-----------------------------------12------------|
G-----------------------------10/12---------------|
D-0-0-0-0-3-3-5-5-7-7-8-10-10----------0-0--0-3-0-|

F-----------------------------------------------|
C-----------------------------------------------|
G----------------------5-7-7-7-5-7--------------|
D-3-3-0-0--0-3-0--12/1-------------0-0--0-3-0---|

F-----------------------------------------------------|
C-----------------------------------------------------|
G---------------2-3-3-3-2-3---------------------------|
D-3-3-0-0-0-3-0-------------0--0--0-3-0-3-3-0-0-0-3-0-|

F--------------------------------------------7-|
C--------------------------------------------7-|
G-2-3-3-3-2-3--------------------------3/5-5-5-|
D-------------0-0-0-3-0--3-3-0-0-0-4-0---------|

F------------------------------------------|
C------------------------------------------|
G------------------------------------------|
D-0-0-0-0-3-3-5-5-7-7--8-8-8-8-7-7-5-5-7-7-|

F----------------------------------------------|
C----------------------------------------------|
G----------------------------------------------|
D-0-0-0-0-3-3-5-5-7-7-8-8-X-10-8-10-8-10-10-10-|


F------------------------------------------|
C------------------------------------------|
G------------------------------------------|
D-0-0-0-0-3-3-5-5-7-7--8-8-8-8-7-7-5-5-7-7-|

F---------------------------------------------------|
C-----------------------------------12--------------|
G-----------------------------10/12-----------------|
D-0-0-0-0-3-3-5-5-7-7-8-10-10----------0-0--0-0-0-0-|

F------------------------------------------------|
C------------------------------------------------|
G-7-5-7-5---------------------7------------------|
D----------3-3-3-3-X-3/10~--8---8-8-8-8-7-8-8--7-|

F---------------------------------------------------|
C---------------------------------------------------|
G-5-------------------------------------------------|
D---7-7-7-5-3-2-0-0-0-0-0-0-0-0-0-3-3-3-3-3-3-10~---|

F----------------------------------------------------|
C----------------------------------------/5-5-5--5-2-|
G---7-------------------5---------5-2-3--------------|
D-8---8-8-8-8-7-8-8-8-7---7-7-7-5--------------------|

F--------------------------------------------------------|
C-0-----/5-5-5-5-2-0----/4-4-4-4-2-0-----/4-4-4-4-2-0----|
G---2-3--------------0---------------0-2--------------2--|
D----------------------2---------------------------------|

F-----------------------------------------------------|
C---/5-5-5-5-2-0------/5-5-2-0-2----5-7-7-7-7-5-4-5---|
G-3--------------2--3-------------5-------------------|
D-----------------------------------------------------|

F-----------------------------------------------------|
C-7-7-5-5-4-4-5-5-7-5---------------------------------|
G---------------------7-7-5-7-7-7-7-7-7-7-7-5-7-7-7-7-|
D-----------------------------------------------------|

F-----------------------------------------------|
C-----------------------------------------------|
G-5-7-7-9-9-7-9-9-9-9-9-9--9-9-7-9-9-9-9-7-9-9--|
D-----------------------------------------------|

F-----------------------------------------------|
C-----------------------------------------------|
G-10-19-9-10-10-10-10-10-10-10-10-9-10-10-10-10-|
D-----------------------------------------------|


F-----------------------------------5-----------|
C-------------------------------5-7---7-5-7-6-7-|
G-9-10-10-7-7-5-7-7-7-7-7-X-5-7-----------------|
D-----------------------------------------------|

F------------------------------------------------------|
C------------------------------------------------------|
G-5-7-3-5-3-2------------------------------------------|
D-------------0-0-0-0-3-3-5-5-7-7--8-8-8-8-7-7-5-5-7-7-|

F--------------------------------------------------------------|
C--------------------------------------------------------------|
G--------------------------------------------------------------|
D-8-8-X-10-8-10-8-10-10-10-0-0-0-0-3-3-5-5-7-7-8-8-8-8-7-7-5-5-|

F----------------------------------------------------------------|
C----------------------12----------------------------------------|
G-----------------10/12------------------------------------------|
D-8-8-8-7-7-10-10---------12-0-0-0-0-3-3-5-5-7-7-8-8-8-8-7-7-5-5-|

F---------------------------------------------------------------|
C---------------------------------------------------------------|
G---------------------------------------------------------------|
D-0-0-0-0-3-3-5-5-7-7-8-8-8-8-7-7-5-5-8-8-X-10-8-10-8-10-10-10--|

F----------------------------------------------------------------|
C----------------------12----------------------------------------|
G-----------------10/12------------------------------------------|
D-8-8-8-7-7-10-10---------12-0-0-0-0-3-3-5-5-7-7-8-8-8-8-7-7-5-5-|

F------------------------------------12-11-------|
C-------------10/9--------------5/---14-12-------|
G---------5/3------------------------------------|
D-0-0-3-0---------3-3-0-0-0-3-0------------0-0---|

F------------------------------------12-11--12-|
C-----------10/9---------------10/12------14---|
G-------5/3------------------------------------|
D-0-3-0----------3-3-0-0-0-3-0-----------------|

F---------------------------------------------------------------|
C------/14-12---------------------------------------------------|
G-15-X--------14/15---------------------------------------------|
D-------------------15-15-14-0-0-0-0-3-3-5-5-7-7--8-8-8-8-7-7-5-|

F----------------------------------------------|
C----------------------------------------------|
G----------------------------------------------|
D-5-7-7-8-8-X-10-8-10-8-10-10-10---------------|

F----------------------------------------------------------|
C-----------------------------------12---------------------|
G-----------------------------10/12----------------7-5-7-5-|
D-0-0-0-0-3-3-5-5-7-7-8-10-10----------0-0-0-0-0-0---------|

F--------------------------------------------------------|
C--------------------------------------------------------|
G--------------------7-----------------5-----------------|
D-3-3-3-3-X-3/-10/-8---8-8-8-8-7-8-8-7---7-7-7-5-3-2-----|

F--------------------------------------------------------|
C--------------------------------------------------------|
G-------------------------------------7------------------|
D-0-0-0-0-0-0-0-0-0-3-3-3-3-3-3-10/-8---8-8-8-8-7-8-8-8--|

F--------------------------------------------------------------|
C-----4-----------0--------------------------------------------|
G--/2---2-2-2-2-2---2------------------------------------------|
D---------------------0-0-0-0-3-3-5-5-7-7--8-8-8-8-7-7-5-5-7-7-|

F--------------------------------------------------------------|
C--------------------------------------------------------------|
G--------------------------------------------------------------|
D--0-0-0-0-3-3-5-5-7-7--8-8-8-8-7-7-5-5-7-7-8-8-X-10-8-10-8-10-|

F------------------------------------------------------------|
C------------------------------------------------------------|
G------------------------------------------------------------|
D-10-10-0-0-0-0-3-3-5-5-7-7--8-8-8-8-7-7-5-5-7-7-------------|

F------------------------------------------------|
C-----------------------------------12-----------|
G-----------------------------10/12--------------|
D-0-0-0-0-3-3-5-5-7-7-8-10-10----------0-0-------|
Suggest correction
Give kudos to tab author, rate the tab!
1 2 3 4 5
comments
print report bad tab
guest
You may want to rate the tab now too:
select rating
Wanna post a correction for this tab? Suggest correction