Oops, an error
Loading. Please wait.

Stuck Man Bass Tab

version 1
version 1

Whole song

Interactive

1,388 views 3 this week
no commentswrite comment
1 2 3 4 5
please rate
add to favorites
launch autoscroll
font size
0
reset
guitar tuner
Tab Pro tools
  • play this tab
  • loop segment
  • change instrument
  • show fretboard
  • metronome
×
Best way to learn
"Stuck Man"
Autoscroll
slow
fast
+/-
esc
set tempo
stop
Contributor
Difficulty
Tuning
intermediate
C# G# C# F# A# D#
-------------------------------------------------------------------------------
			     Stuck Man - Dir en grey
-------------------------------------------------------------------------------

Tabbed By : DeadxFreedom
e-mail: R_to_the_core@hotmail.co.uk

Tuning: C# G# C# F# (1/2 step down + drop D)
Key: Ab  Tempo: 120 BPM

This song is mainly slapping (Indicated by *) and popping (indicated by >)

       (Main Riff)
   W W E S S S S E E S S S S S S S  E.S S S E E E Q
       *   >     * *           > >  * >   > * > * *
F#|-|-|------------------------8h10|---------------|
C#|R|R|----3-R---------------------|--3-R-3---3----| x2
G#|-|-|----------------------------|---------------|
C#|-|-|3-x-----x-4-3-x-x-x-x-x-----|3-------3---3-4|

   E S S S S E E S S S S S S S  E E E E E S S E E E S S S S E E S S S S S S S  E.S S S E E E Q
   *   >     * *           > >  * * *   *   >   * *   >     * *           > >  * >   > * > * *
F#|------------------------8h10|-----------------|------------------------8h10|---------------|
C#|----3-R---------------------|------R-----3----|----3-R---------------------|--3-R-3---3----|
G#|----------------------------|--2--------------|----------------------------|---------------|
C#|3-x-----x-4-3-x-x-x-x-x-----|3---3---3-x---x-1|3-x-----x-4-3-x-x-x-x-x-----|3-------3---3-4|

(Break, Die plays a guitar fill for four bars)
   W W W W S E S E S E E S E E
           > * * * > * * * * *
F#|-|-|-|-|-------------------|
C#|R|R|R|R|-------------------| x 4
G#|-|-|-|-|2-------2----------|
C#|-|-|-|-|--3-3-3---3-3-3-3-4|

(Play Main Riff)

(Die plays the same guitar fill again)
 
   W S E E S S E S Q. S E E S S E E S E E S E E S S E E S E E	
     > * * * > * *    > * * * > * * * * * > * * * > * * * * *
F#|-|----------------|-------------------|-------------------|
C#|R|--------------R-|-------------------|-------------------|
G#|-|2-------2-------|2-------2----------|2-------2----------|
C#|-|--3-3-3---3-3---|--3-3-3---3-3-3-3-4|--3-3-3---3-3-3-3-4|
 
                                (1:06)
   S E E S S E E S E E          S E S E S E S E E E
   > * * * > * * * * *          * > > * * > > * > >
F#|-------------------|      F#|-------------------|
C#|-------------------| x 4  C#|-------------------| x 4
G#|2-------2----------|      G#|--2-2-----2-2---2-3|
C#|--3-3-3---3-3-3-3-4|      C#|x-----3-x-----3----|

   (1:14)
   E S S S S E Q Q   E S S S S E Q E S S E S S S S E Q Q   E S S S S E S S S  S  S  S  S  S
   *   >   * * *     *   >   * * * > > > *   >   * * *     *   >   * * * > *  >  *  >  *  >
F#|-----------------|-------------------|-----------------|---------------------------------|
C#|----3-R----------|----3-R-------3-3-3|----3-R----------|----3-R-------9----10----11----12|
G#|-----------------|-------------------|-----------------|---------------------------------|
C#|3-x-----x-4-3/10\|3-x-----x-4-3------|3-x-----x-4-3/15\|3-x-----x-4-9---10----11----12---|

   E S E S E Q E S S E E E E E S S E E E S S S S E E S S S S S S S E.S S S E E E Q
   *   *   * *       * * *   *   >   * *   >     * *           > > * >   > * > * *
F#|-----------------|---------------------------------------------|---------------|
C#|-----------------|------R-----3----|----3-R-----------------1h3|--3-R-3---3----|
G#|-----------------|--2--------------|---------------------------|---------------|
C#|3-x-4-x-1-3-x-x-x|3---3---3-x---x-1|3-x-----x-4-3-x-x-x-x-x----|3-------3---3-4|

(1:30, Die plays the guitar fill again)
   W S E E S S E S Q. S E E S S E E S E E S E E S S E E Q.
     > * * * > * *    > * * * > * * * * * > * * * > * * 
F#|-|----------------|-------------------|----------------|
C#|R|--------------R-|-------------------|--------------R-|
G#|-|2-------2-------|2-------2----------|2-------2-------|
C#|-|--3-3-3---3-3---|--3-3-3---3-3-3-3-4|--3-3-3---3-3---|

   S E E S S E E S E E          S E S E S E S E E E
   > * * * > * * * * *          * > > * * > > * > >
F#|-------------------|      F#|-------------------|
C#|-------------------| x 4  C#|-------------------| x 4
G#|2-------2----------|      G#|--2-2-----2-2---2-3|
C#|--3-3-3---3-3-3-3-4|      C#|x-----3-x-----3----|

   (Jazzy breakdown part, 1:54)
   Play with fingers.
   H  H+Q Q E. E. S S Q. E Q Q E Q E Q Q H  H+Q Q E. E. S S Q. E Q Q W  W+W+W
   
F#|----|-------------|--------|---------|----|-------------|--------|-|^-|-|-|
C#|----|-------------|--------|--R---R--|----|-------------|--------|-||9|-|-|
G#|5---|----8--7--5-3|2--2/5--|---------|5---|----8--7--5-3|2--2/5--|-||8|-|-|
C#|--/9|--9----------|-------7|3---3---3|--/9|--9----------|-------7|6||6|-|-|

   E Q E Q Q  W+W W+W

F#|---------|--|-|-|-|
C#|--R---R--|--|-|-|-|
G#|---------|--|-|-|-|
C#|3---3---3|/9|-|9|-|

                             (Walking bass line, 2:34)
   E S E S E E E E E         E E E E E E E E E E E E E E E E E E E E E E E E E E E E E E E E
    
F#|-----------------|     F#|---------------|---------------|---------------|--------4-5-6-7|
C#|----3-3---3------| x4  C#|---------------|---------------|---------------|3-4-5-6--------|
G#|-----------------|     G#|--------2-3-4-5|--------2-3-4-5|--------2-3-4-5|---------------|
C#|3-x-----3---3-3-4|     C#|3-4-5-6--------|3-4-5-6--------|3-4-5-6--------|---------------|

   W W E S E E E S E Q            E S E E E S E S E.

F#|-|-|-----------------|      F#|-----------------|
C#|R|R|-----------------| x 3  C#|-----------------|
G#|-|-|-----------------|      G#|--------------2/3|
C#|-|-|3-3-3-3-3-3-3/15\|      C#|3-3-3-3-3-3-3----|

                              (3:10)   
   E S E E E S E S E.          S E S E S E E S E E
   * * > > * > * > *           > * * * > * * * * *
F#|------------------|      F#|-------------------|
C#|------------------| x 8  C#|-------------------| x 8
G#|----2-2---2---2---|      G#|2-------2----------|
C#|3-3-----3---3---3-|      C#|--3-3-3---3-3-3-3-4|

   (Outro, 3:26)
                                  
   S E S E. E S E E E             S E S E. E S E S S S S
F#|---------------------|      F#|----------------------|
C#|---------------------| x 3  C#|----------------------|
G#|--2-2----2-2---2-3---|      G#|--2-2----2-2---2---2-3|
C#|3-----3------3-------|      C#|3-----3------3---3----|


| W  whole note
| H  Half note
| Q  Quarter note
| E  Eight note
| S  Sixteenth note
| .  Dotted note
| +  Tied note
| R  Rest
| *  Slap
| >  Pop / Accented Note
| /  slide up
| \  slide down
| h  hammer-on
| p  pull-off
| ~  vibrato
| x  Mute note
===============================================================================
comments
We did not receive enough feedback on this tab! Please rate:
print report bad tab
1 2 3 4 5
I want to post or [tab]
guest
You may want to rate the tab now too:
select rating
Please do not post tabs as comments. Select "correction" instead!