Oops, an error
Loading. Please wait.

The Final Bass Tab

version 1
version 1

Whole song

Interactive

4,203 views 15 this week
no commentswrite comment
1 2 3 4 5
please rate
add to favorites
launch autoscroll
font size
0
reset
guitar tuner
Autoscroll
slow
fast
+/-
esc
set tempo
stop
Help us to improve Ultimate-Guitar.com Take our survey!
×
Difficulty
intermediate
F---------------------------------------------------------------------------------|
C----------------------------------------------------------------------------1-0--|
G----------------0----1-1-1-1-0-1--------------------------------------0----------|
D-3-3-3-3-3--1----1---------------1-1-1-1-1--0--1--3-3-3-3-3-3-1------------------|

F--------------------------------------------------------------------------|
C--------------------------------------------------------------------------|
G-1-1--1--3-0----------------1-3-3-3-1-1-0-0--1----------1-----------------|
D----------------1--1--1-1-1-------------------------3-3-3----3----3-------|

F----------------------------------------------------------|
C----------------------------------------------------------|
G-1-------1----------1---------1--------1----1-------------|
D---3-3-3---3--3--1---3-3-3----3--3-3---3---3---1h3--------|

F----------------------0---0----------0--1---0h1-----------------|
C-------------------------3---3--0----------1------1-------0-----|
G--------1---------------------------3----------------1---1----1-|
D--3--3---3----1h3-----------------------------------------------|

F--0----0------------------------------------------------------------|
C-----3---3-0---0--1----0h1--1-----0---0-----------------------------|
G--------------3-------1----------1-1---1--------1-------0-----------|
D-----------------------------------------------------3-------3------|

Chorus:
F-----------------------------------------------------------------------|
C-----------------------------------------------------------------------|
G-----------------0--6-6-6-6-6-6----1-1-1-1-1--0-1----------------------|
D---3-3-3-3-3-1--------------------1------------------1-1-1-1-1-1--2----|

F----------------------------------------------------------------------------|
C----------------------------------------------------------------------------|
G-----------------0---6-6-6-6-6-6-6-6-6-1-1-1-1-1-3-1---------1-1-1-1--------|
D---3-3-3-3-3-1-------------------------------------------1-1-1-1------------|

^Repeat

F-----------------------------------------------------------------|
C-----------------------------------------------------------------|
G-1-1-1-1-1-3-1-----------------1-----------1----------1----------|
D----------------1-1-1-1-1-1-1-1--3-3-4-2---3--3--3---3--3--------|

F------------------------------------------------------|
C------------------------------------------------------|
G-1--------1----------1---------1-----1--------1-------|
D---3-3-3---3--3--1---3--3-3----3---3-3-3---1----------|

F----------------------------------------------|
C----------------------------------------------|
G-1--------1--------1--------1---------1-------|
D---3-3-3--3---3----3-3-3--3--3--1-------------|

F-----------------------------------------------------------|
C-----------------------------------------------------------|
G-1-------1--------1--------1--------1--------1-------------|
D--3-3-3---3---3---3-3-3---3-3-1---3-3-3---3--3-------------|

F------------------------------------------------------------|
C------------------------------------------------------------|
G-1--------1---1-----------------1---1---------------1-------|
D---3-3-3---1---3-3-3--1h3-1---1---3-3-3-1h3-1---1-----------|

F---------------------------------------------------------------------|
C---------------------------------------------------------------------|
G-1------------------1------1----------------1--1---------------1-----|
D---3-3-3-1h3--1------1-----3-3-3-1h3-1---1--3-3-3-1h3-1---1----------|

F----------------------------------------------------|
C----------------------------------------------------|
G-1----------------1---------------------------------|
D---3-3-3-1h3-1----1--4-4-4-4-4-1-3-3-3-3-X----------|

Pre-Chorus

F--------------------------------------------------------|
C--------------------------------------------------------|
G-1---------1------1--------1-----1--------1-------------|
D---3--3-3---3-3---3-3-3--3-3---3-3-3---3-3--------------|

F--------------------------------------------------------|
C--------------------------------------------------------|
G-1--------1------1--------1------1--------1-------------|
D---3-3-3---3-3---3-3-3---3-3---3-3-3---3-3--------------|

F---------------------------------------------------------------|
C-----------------------------------------------0---------------|
G------------------------------------------0-1----1--3-1-3-1----|
D--4-4-4-4-4-4-4-3-3-3-3-3-3-3-3-3------------------------------|

Chorus:

F------------------------------------------------------------|
C-------------0---------------------3-1---------------3------|
G--------0-1----1--3-1-3-1--1-1-1------1----------------3----|
D---3-3------------------------------------1--1-1--1---------|

F----------------------------------------------------------------|
C----------------------------------------------------------------|
G---------------------6-6-6-6-6-6-6-6--1-1-1-1-1-1-1-1-1---------|
D-3-3-3-3-3-3-3-3------------------------------------------------|

F---------------------------------------------------------------|
C---------------3-----------------------------------------------|
G----------X-----3---------------------6-6-6-6-6-6-6-6----------|
D-1-1-1-1----1------3-3-3-3-3-3-3-3-----------------------------|

F----------------------------------------------------------------|
C-------------------------------3--------------------------------|
G--1-1-1-1-1-1-1-1--------X-----3--------------------------------|
D------------------1-1-1-1---1------3-3-3-3-3-3-3-3--------------|

F-------------------------------------------------------------------------------|
C-------------------------------------------------------------------------------|
G-6-6-6-6-6-6-6-6--1-1-1-1-1-1-1-1----------------------------------------------|
D----------------------------------------1-1-1-1-1-1-1--3-3-3-3-3-3-3-3---------|

F------------------------------------------------------------------------------------|
C------------------------------------------------------------------------------------|
G--6-6-6-6-6-6-6-6-6--1-1-1-1-1-1-1-1-------------3-0----------------------1---------|
D-------------------------------------------1-1-1-1-X-------1-2--3-3-3-3-3-1---------|

F---------------------------------------------------------------------------------------|
C-----------------1-----------------------------------------------------------1---------|
G-6-6-6-6-6-6---1--1-1-1-1-1-1----------------1---1-0----6--6-6-6-6-6---6--6------------|
D----------------------------------1-1-1-1-1-1~2--3------1------------------------------|

F---------------------------------------------------------------------------------------|
C--------------------------------------------------------0-----------------------0------|
G---------------------------------------1-------------------1------------------------1--|
D--1-1-1-1-1----1-2---3-3-3-3-3-1-3---3-3-3-3-3-1---------3-3-3-3-3-1-------------------|

F----------------------------------------------------------------------------|
C----------------------------------------------------------------------------|
G--6-6-6-6-6-6-6-6-6-----------6--------------------------0-0-0-0-0-0-0-0-1--|
D-------------------------1-1-1-1-1--0-1-2--3-3-3-3-3-1-3-4------------------|

F-----------------------------------------------------------------------------------------------|
C-----------------------------------------------------------------------------------------------|
G---------1-----1--------1-----1--------1------1---------1------1--------1-----1--------1----1--|
D--3-3-3--3-1---3-3-3---3-1---3-3-3--3--1---3--3-3--3--1---3-3-3---3-1--3-3-3----3--------------|

F-----------------------------------------------|
C-----------------------------------------------|
G-----------------------------------------------|
D--4-4-4-4-4-4-4-3-3-3-1-3-----------3~---------|
Suggest correction
Give kudos to tab author, rate the tab!
1 2 3 4 5
comments
print report bad tab
guest
You may want to rate the tab now too:
select rating
Please do not post tabs as comments. Select "correction" instead!