Oops, an error
Loading. Please wait.

The Pledge Acoustic Tab

version 1
version 1

Whole song

Interactive

10,469 views 18 this week
4 commentsread comments
1 2 3 4 5
accurate
x 4
add to favorites
launch autoscroll
font size
0
reset
how to read this tab
guitar tuner
Autoscroll
slow
fast
+/-
esc
set tempo
stop
Help us to improve Ultimate-Guitar.com Take our survey!
×
Author
Hey! This is my Version of the acoustic Version of The Pledge by Dir en grey. It sounds 
good. On a few parts I think it's not quite right but now you got the key and I think 
you can correct mistakes on your on.

Important is the tuning:

eb
Bb
Gb
Db
Ab
Eb


Write me for questions.

Please rate it.

Have fun.


The Pledge


Guitar 1:

eb-----0--|---|---------------|--------------------------|
Bb-----0--|---|--2------3--2--|---0-----0----------------|
Gb-----0--|---|----2----------|-------0------------------|
Db-----4--|---|------2--------|-----0--------------------|
Ab-----2--|---|--0------0-----|--------------------------|
Eb--------V---|---------------|---3----------------------|


eb------------|--------------0---|---2-----0-------|-----0-----|
Bb------------|--2--------3------|------3-----3--0-|-3-0---3---|
Gb---------0--|----2-------------|-----------------|-----------|
Db-------4----|------2-----------|-----------------|-----------|
Ab-----2------|--0--------0------|-----------------|-----------|
Eb------------|------------------|---3-------------|-----------|



Verse:


Guitar 1:

eb---------------0-|----------------2----|--------------0-----|
Bb-----3-------3---|---2-----2--------3--|---3------3-----3---|
Gb-----------4-----|-------2-------------|--------0-----------|
Db--------4--------|-----2---------------|------0-------------|
Ab-----2-----------|---0-----------------|--------------------|
Eb-----------------|---------------------|---3----------------|


Guitar 2:

eb----------------|----------------------|--------------------|
Bb---3------------|----2-----------------|---3----------------|
Gb---4------------|----2-----------------|---4----------------|
Db----------------|----------------------|--------------------| 2x
Ab----------------|----------------------|--------------------|
Eb----------------|----------------------|--------------------|


eb----------------|----------------------|--------------------|
Bb---7------------|----5-----0--2--------|---3----------------|
Gb---7------------|----7-----2--2--------|---4----------------|
Db----------------|----------------------|--------------------| 2x
Ab----------------|----------------------|--------------------|
Eb----------------|----------------------|--------------------|


before the Chorus (I'm about this part not sure)

eb----------------------|
Bb--------2------3------|
Gb---/4-4---4--2---2----|
Db----------------------|
Ab----------------------|
Eb----------------------|


Chorus:

Guitar 1:

eb---------------0-----|------------0-------|--------------0------|-----------2------|
Bb-----3-----------3---|-3------------3-----|--0-------------0----|-2-----------2----|
Gb---------4---4-----4-|-----0---0------0---|-------0---0------0--|-----3---3-----3--|
Db-------4---4---------|---0---0------------|-----2---2-----------|---4---4----------|
Ab-----2---------------|--------------------|---------------------|------------------|
Eb---------------------|-3------------------|--0------------------|-2----------------|


eb---------------0-----|------------0-------|--------------0------|-----------2------|
Bb-----3-----------3---|-3---3---3----3-----|--0-------------0----|-2-----------2----|
Gb---------4---4-----4-|---2---2--------2---|-------0---0------0--|-----3---3-----3--|
Db-------4---4---------|-0------------------|-----2---2-----------|---4---4----------|
Ab-----2---------------|--------------------|---------------------|------------------|
Eb---------------------|--------------------|--0------------------|-2----------------|



Guitar 2:

eb----------------|--------------------|------------------|--------------------|
Bb---7----0-------|--2-3-2-------------|--2-2---3---------|---3---2------------|
Gb---7----7-------|--2-2-2-------------|--0-0---0---------|---4---4------------|
Db----------------|--------------------|------------------|--------------------|
Ab----------------|--------------------|------------------|--------------------|
Eb----------------|--------------------|------------------|--------------------|



Interlude:

Guitar 1:

eb---------------0-|----------------2----|--------------0-----|
Bb-----3-------3---|---2-----2--------3--|---3------3-----3---|
Gb-----------4-----|-------2-------------|--------0-----------|
Db--------4--------|-----2---------------|------0-------------|
Ab-----2-----------|---0-----------------|--------------------|
Eb-----------------|---------------------|---3----------------|


eb---------------0-|----------------2----|--------------0-----|
Bb-----3-------3---|---2-----2--------3--|---3------3-----3---|
Gb-----------4-----|-------2-------------|--------0-----------|
Db--------4--------|-----2---------------|------0-------------|
Ab-----2-----------|---0-----------------|--------------------|
Eb-----------------|---------------------|---3----------------|


Guitar 2:

eb----------------|----------------------|--------------------|--------------|
Bb---3------------|----2--------------7--|---3----------------|---0-----2----|
Gb---4------------|----2--------------7--|---4----------------|-2---2-----2--|
Db----------------|----------------------|--------------------|--------------|
Ab----------------|----------------------|--------------------|--------------|
Eb----------------|----------------------|--------------------|--------------|


eb----------------|----------------------|--------------------|--------------|
Bb---3------------|----2------------7-5--|---3----------------|---3-----2----|
Gb---4------------|----2------------7-7--|---4----------------|-4---4-----2--|
Db----------------|----------------------|--------------------|--------------|
Ab----------------|----------------------|--------------------|--------------|
Eb----------------|----------------------|--------------------|--------------|


Verse 2:


Guitar 1:

eb---------------0-|----------------2----|--------------0-----|
Bb-----3-------3---|---2-----2--------3--|---3------3-----3---|
Gb-----------4-----|-------2-------------|--------0-----------|
Db--------4--------|-----2---------------|------0-------------|
Ab-----2-----------|---0-----------------|--------------------|
Eb-----------------|---------------------|---3----------------|


Guitar 2:


eb----------------|----------------------|--------------------|
Bb---3------------|----2-----------------|---3----------------|
Gb---4------------|----2-----------------|---4----------------|
Db----------------|----------------------|--------------------| 2x
Ab----------------|----------------------|--------------------|
Eb----------------|----------------------|--------------------|


eb----------------|----------------------|--------------------|
Bb---7------------|----5-----0--2--------|---3----------------|
Gb---7------------|----7-----2--2--------|---4----------------|
Db----------------|----------------------|--------------------| 2x
Ab----------------|----------------------|--------------------|
Eb----------------|----------------------|--------------------|


before the Chorus (I'm about this part not sure)

eb----------------------|
Bb--------2------3------|
Gb---/4-4---4--2---2----|
Db----------------------|
Ab----------------------|
Eb----------------------|



Chorus:

Guitar 1:

eb---------------0-----|------------0-------|--------------0------|-----------2------|
Bb-----3-----------3---|-3------------3-----|--0-------------0----|-2-----------2----|
Gb---------4---4-----4-|-----0---0------0---|-------0---0------0--|-----3---3-----3--|
Db-------4---4---------|---0---0------------|-----2---2-----------|---4---4----------|
Ab-----2---------------|--------------------|---------------------|------------------|
Eb---------------------|-3------------------|--0------------------|-2----------------|


eb---------------0-----|------------0-------|--------------0------|-----------2------|
Bb-----3-----------3---|-3---3---3----3-----|--0-------------0----|-2-----------2----|
Gb---------4---4-----4-|---2---2--------2---|-------0---0------0--|-----3---3-----3--|
Db-------4---4---------|-0------------------|-----2---2-----------|---4---4----------|
Ab-----2---------------|--------------------|---------------------|------------------|
Eb---------------------|--------------------|--0------------------|-2----------------|


Guitar 2:


eb----------------|--------------------|------------------|--------------------|
Bb---7----0-------|--2-3-2-------------|--2-2---3---------|---3---2------------|
Gb---7----7-------|--2-2-2-------------|--0-0---0---------|---4---4------------|
Db----------------|--------------------|------------------|--------------------|
Ab----------------|--------------------|------------------|--------------------|
Eb----------------|--------------------|------------------|--------------------|


"Breaking part":

("This is my pledge to you...")

Guitar 1:

eb---------------0-|----------------2----|--------------0-----|
Bb-----3-------3---|---2-----2--------3--|---3------3-----3---|
Gb-----------4-----|-------2-------------|--------0-----------|
Db--------4--------|-----2---------------|------0-------------|
Ab-----2-----------|---0-----------------|--------------------|
Eb-----------------|---------------------|---3----------------|


eb---------------0-|----------------2----|--------------0-----|
Bb-----3-------3---|---2-----2--------3--|---3------3-----3---|
Gb-----------4-----|-------2-------------|--------0-----------|
Db--------4--------|-----2---------------|------0-------------|
Ab-----2-----------|---0-----------------|--------------------|
Eb-----------------|---------------------|---3----------------|


Guitar 2:

eb----------------|----------------------|--------------------|
Bb---3------------|----2-----------------|---3----------------|
Gb---4------------|----2-----------------|---4----------------|
Db----------------|----------------------|--------------------| 2x
Ab----------------|----------------------|--------------------|
Eb----------------|----------------------|--------------------|


Bridge:

Guitar 1:


eb-----------------0-----|--------------0-------|
Bb-----3-------------3---|---2------------2-----|
Gb-----------4---4-----4-|-------2---2------2---|
Db--------4----4---------|-----2---2------------|
Ab-----2-----------------|---0------------------|
Eb-----------------------|----------------------|


eb-----------------0-----|--------------0-------|
Bb-----3-------------3---|---2------------2-----|
Gb-----------4---4-----4-|-------2---2------2---|
Db--------4----4---------|-----2---2------------|
Ab-----2-----------------|---0------------------|
Eb-----------------------|----------------------|


eb-----------------0-----|--------------0-------|
Bb-----3-------------3---|---2------------2-----|
Gb-----------0---0-----0-|-------2---2------2---|
Db--------0----0---------|-----2---2------------|
Ab-----------------------|---0------------------|
Eb-----3-----------------|----------------------|


eb-----------------0-----|-------------|
Bb-----3-------------3---|---2---------|
Gb-----------4---4-----4-|---2---------|
Db--------4----4---------|---2---------|
Ab-----2-----------------|---0---------|
Eb-----------------------|-------------|


Guitar 2:

eb-------------------|--------------------|------------------|--------------------|
Bb---7----5h7--------|--5-----10--8-------|--7---------------|---5----------------|
Gb---7----7----------|--7-----9---9-------|--7---------------|---7----------------|
Db-------------------|--------------------|------------------|--------------------|
Ab-------------------|--------------------|------------------|--------------------|
Eb-------------------|--------------------|------------------|--------------------|


eb-------------------|------------------|
Bb---7p5--7----------|--5---7-----------|
Gb---7----7----------|--7---7-----------|
Db-------------------|------------------|
Ab-------------------|------------------|
Eb-------------------|------------------|


Chorus:

Guitar 1:

eb---------------0-----|------------0-------|--------------0------|-----------2------|
Bb-----3-----------3---|-3------------3-----|--0-------------0----|-2-----------2----|
Gb---------4---4-----4-|-----0---0------0---|-------0---0------0--|-----3---3-----3--|
Db-------4---4---------|---0---0------------|-----2---2-----------|---4---4----------|
Ab-----2---------------|--------------------|---------------------|------------------|
Eb---------------------|-3------------------|--0------------------|-2----------------|


eb---------------0-----|------------0-------|--------------0------|-----------2------|
Bb-----3-----------3---|-3---3---3----3-----|--0-------------0----|-2-----------2----|
Gb---------4---4-----4-|---2---2--------2---|-------0---0------0--|-----3---3-----3--|
Db-------4---4---------|-0------------------|-----2---2-----------|---4---4----------|
Ab-----2---------------|--------------------|---------------------|------------------|
Eb---------------------|--------------------|--0------------------|-2----------------|


Guitar 2:


eb----------------|--------------------|------------------|--------------------|
Bb---7----0-------|--2-3-2-------------|--2-2---3---------|---3---2------------|
Gb---7----7-------|--2-2-2-------------|--0-0---0---------|---4---4------------|
Db----------------|--------------------|------------------|--------------------|
Ab----------------|--------------------|------------------|--------------------|
Eb----------------|--------------------|------------------|--------------------|

End:


|I'm not sure if it's right but he plays something like that---|that's right|

eb------------------------|-0----0----0-----|---------------2--|--------5-------|
Bb----------------3-------|---3----3----3---|-----3-------3----|-----3----------|
Gb--------0---0-----0---0-|-----0----0----0-|---0---0---0------|--4-------------|
Db------0---0---------0---|-----------------|-0-------0--------|----------------|
Ab------------------------|-----------------|------------------|----------------|
Eb------------------------|-----------------|------------------|----------------|




© by tiadoro
Suggest correction
What's this?
You can suggest a correction to this tab. Community and Mods will review your correction and vote to approve or reject it.
comments
print report bad tab
4 comments total. Showing first comments.
0 reply
Tiadoro 363 wrote on May 6 2009, 06:30 pm

The Chorus has the correct rhythm fig. but the single notes of the chords are wrong. The chords for the chorus are: Bm, G, Em, F# and Bm Dsus2 (xx0230, Em and F#

0 reply
Vinushka 318 wrote on December 22 2010, 09:54 pm

I think the tab's good, but I'm having a hard time reading it since it appears to be upside down...

0 reply
trolldevianta 11 wrote on May 14 2013, 03:54 pm

its not upsaide down, you just dont know how to read tabs

guest
You may want to rate the tab now too:
select rating
Please do not post tabs as comments. Select "correction" instead!