Oops, an error
Loading. Please wait.

Wake Bass Tab

version 1
version 1

Whole song

Interactive

601 views 1 this week
no commentswrite comment
1 2 3 4 5
please rate
add to favorites
launch autoscroll
font size
0
reset
guitar tuner
Autoscroll
slow
fast
+/-
esc
set tempo
stop
Help us to improve Ultimate-Guitar.com Take our survey!
×
Author
-----------------------------
Wake - Dir en grey
-----------------------------

Tuning: EADG

G|---------------------------|--------------------------|
D|--------/2-----------5-----|--0--7/9-7-0-----0--5--4--|
A|------------2--3--3-----3--|--------------2-----------|
E|--0--0---------------------|--------------------------|

G|---------------------------|--------------------------|
D|--------/2-----------5-----|--------------------------|
A|------------2--3--3-----3--|--5--3--2--0--------------|
E|--0--0---------------------|--------------3--3--2--2--|

G|---------------------------|--------------------------|
D|--------/2-----------5-----|--0--7/9-7-0-----0--5--4--|
A|------------2--3--3-----3--|--------------2-----------|
E|--0--0---------------------|--------------------------|

G|---------------------------|--------------------------|
D|--------/2-----------5-----|--------------------------|
A|------------2--3--3-----3--|--5--3--2--0--------------|
E|--0--0---------------------|--------------3--3--2--2--|

VERSE 

 0:17

G|---------------------------|--------------------------|
D|---------------------------|--------------------2-----|
A|---------------------------|-----------------------2--|
E|--0--0--0--0--0--0--0--0---|--0--0--0--0--0--3--------|

G|---------------------------|--------------------------|
D|---------------------------|-----------------0--------|
A|--3--3--3--3--3--3--3--3---|--3--3--3--3--3-----2--3--|
E|---------------------------|--------------------------|

G|---------------------------|--------------------------|
D|---------------------------|--------------------------|
A|--0--0--0--0--0--0--0--0---|--0--0--0--0--0--0--------|
E|---------------------------|--------------------3--2--|

G|---------------------------|--------------4-----------|
D|---------------------------|--------4--------4--------|
A|--2--2--2--2--0--2--2--2---|--2--2-----5--------5-----|
E|---------------------------|-----------------------5--|

G|---------------------------|--------------------------|
D|---------------------------|--------------------2-----|
A|---------------------------|-----------------------2--|
E|--0--0--0--0--0--0--0--0---|--0--0--0--0--0--3--------|

G|---------------------------|--------------------------|
D|---------------------------|-----------------0--------|
A|--3--3--3--3--3--3--3--3---|--3--3--3--3--3-----2--3--|
E|---------------------------|--------------------------|

G|---------------------------|--------------------------|
D|---------------------------|--------------------------|
A|--0--0--0--0--0--0--0--0---|--0--0--0--0--0--0--------|
E|---------------------------|--------------------3--2--|

G|---------------------------|--------------------------|
D|---------------------------|--------------------------|
A|--2--2--2--2--2--2--2--2---|--2--2--2--2--2--3--5--6--|
E|---------------------------|--------------------------|

 0:50

G|---------------------------|--------------------------|
D|--------/2-----------5-----|--0--7/9-7-0-----0--5--4--|
A|------------2--3--3-----3--|--------------2-----------|
E|--0--0---------------------|--------------------------|

G|---------------------------|--------------------------|
D|--------/2-----------5-----|--------------------------|
A|------------2--3--3-----3--|--5--3--2--0--------------|
E|--0--0---------------------|--------------3--3--2--2--|

G|---------------------------|--------------------------|
D|--------/2-----------5-----|--0--7/9-7-0-----0--5--4--|
A|------------2--3--3-----3--|--------------2-----------|
E|--0--0---------------------|--------------------------|

G|---------------------------|--------------------------|
D|--------/2-----------5-----|--------------------------|
A|------------2--3--3-----3--|--5--3--2--0--------------|
E|--0--0---------------------|--------------3--3--2--2--|

VERSE 

 1:07

G|---------------------------|--------------------------|
D|---------------------------|--------------------2-----|
A|---------------------------|-----------------------2--|
E|--0--0--0--0--0--0--0--0---|--0--0--0--0--0--3--------|

G|---------------------------|--------------------------|
D|---------------------------|-----------------0--------|
A|--3--3--3--3--3--3--3--3---|--3--3--3--3--3-----2--3--|
E|---------------------------|--------------------------|

G|---------------------------|--------------------------|
D|---------------------------|--------------------------|
A|--0--0--0--0--0--0--0--0---|--0--0--0--0--0--0--------|
E|---------------------------|--------------------3--2--|

G|---------------------------|--------------4-----------|
D|---------------------------|--------4--------4--------|
A|--2--2--2--2--0--2--2--2---|--2--2-----5--------5-----|
E|---------------------------|-----------------------5--|

G|---------------------------|--------------------------|
D|---------------------------|--------------------2-----|
A|---------------------------|-----------------------2--|
E|--0--0--0--0--0--0--0--0---|--0--0--0--0--0--3--------|

G|---------------------------|--------------------------|
D|---------------------------|-----------------0--------|
A|--3--3--3--3--3--3--3--3---|--3--3--3--3--3-----2--3--|
E|---------------------------|--------------------------|

G|---------------------------|--------------------------|
D|---------------------------|--------------------------|
A|--0--0--0--0--0--0--0--0---|--0--0--0--0--0--0--------|
E|---------------------------|--------------------3--2--|

G|---------------------------|--------------------------|
D|---------------------------|--------------------------|
A|--2--2--2--2--2--2--2--2---|--2--2--2--2--2--3--5--6--|
E|---------------------------|--------------------------|

PRE-CHORUS

 1:41

G|---------------------------|--------------------------|
D|---------------------------|----------------7--5--4---|
A|--3--3--/10----\2--2--/9---|--\7--7--9--10----------5-|
E|---------------------------|--------------------------|

G|---------------------------|--------------------------|
D|---------------------------|--------------------------|
A|--3--3--/10----\5-----5--6-|--7--7--6--6--5--5--4--4--|
E|-------------------7-------|--------------------------|

G|---------------------------|---------------------7----|
D|---------------------------|---------------7--------9-|
A|--3--3--/10----\2--2--/9---|--7--7--9--10-----10------|
E|---------------------------|--------------------------|

G|---------9------7----------|
D|-10--10-----10-----7--5--4-|
A|---------------------------|
E|---------------------------|

CHORUS

G|---------------------------|--------------------------|
D|---2--2--2-----------5-----|--0--7/9-7--0-----0--5--4-|
A|------------2--3--3-----3--|---------------2----------|
E|---------------------------|--------------------------|

G|---------------------------|--------------------------|
D|---------------------------|--------------------------|
A|---------------3--2--0-----|--5--3--2--0--------------|
E|---0--0--0--0-----------3--|--------------3--3--2--2--|

G|---------------------------|--------------------------|
D|---------------------5-----|--0--7/9-7--0-----0--5--4-|
A|---------7\----3--3-----3--|---------------2----------|
E|--0--0---------------------|--------------------------|

G|---------------------------|--------------------------|
D|---------2-----------------|--------------------------|
A|------------2--3--2--0-----|--5--3--2--0--------------|
E|---0--0-----------------3--|--------------3--3--2--2--|

G|---------------------------|--------------------------|
D|---------------------5-----|--0--7/9-7--0-----0--5--4-|
A|---------7\----3--3-----3--|---------------2----------|
E|--0--0---------------------|--------------------------|

G|---------------------------|--------------------------|
D|---------2-----------------|--------------------------|
A|------------2--3--2--0-----|--5--3--2--0--------------|
E|---0--0-----------------3--|--------------3--3--2--2--|

G|---------------------------|--------------------------|
D|---------------------5-----|--0--7/9-7--0-----0--5--4-|
A|---------7\----3--3-----3--|---------------2----------|
E|--0--0---------------------|--------------------------|

G|---------------------------|--------------------------|
D|---------2-----------------|--------------------------|
A|------------2--3--2--0-----|--5--3--2--0--------------|
E|---0--0-----------------3--|--------------3--3--2--2--|


SOLO

G|---------------------------|--------------------------|
D|---------------------------|--------------------2-----|
A|---------------------------|-----------------------2--|
E|--0--0--0--0--0--0--0--0---|--0--0--0--0--0--3--------|

G|---------------------------|--------------------------|
D|---------------------------|-----------------0--------|
A|--3--3--3--3--3--3--3--3---|--3--3--3--3--3-----2--3--|
E|---------------------------|--------------------------|

G|---------------------------|--------------------------|
D|---------------------------|--------------------------|
A|--0--0--0--0--0--0--0--0---|--0--0--0--0--0--0--------|
E|---------------------------|--------------------3--2--|

G|---------------------------|--------------4-----------|
D|---------------------------|--------4--------4--------|
A|--2--2--2--2--0--2--2--2---|--2--2-----5--------------|
E|---------------------------|--------------------3--5--|

G|---------------------------|--------------------------|
D|---------------------------|--------------------------|
A|---------------------------|--------------------2--2--|
E|--0--0--0--0--0--0--0--0---|--0--0--0--0--0--3--------|

G|---------------------------|--------------------------|
D|---------------------------|-----------------0--------|
A|--3--3--3--3--3--3--3--3---|--3--3--3--3--3-----2--3--|
E|---------------------------|--------------------------|

G|---------------------------|--------------------------|
D|---------------------------|--------------------------|
A|--0--0--0--0--0--0--0--0---|--0--0--0--0--0--0--------|
E|---------------------------|--------------------3--2--|

G|---------------------------|--------------------------|
D|---------------------------|--------------------0--2--|
A|--2--2--2--2--2--2--2--2---|--2--2--0--0--2--3--------|
E|---------------------------|--------------------------|


Bridge

G|---------------------------|--------------------------|
D|---------------------------|------------------5--4----|
A|--3~-----------------------|--5---------------------5-|
E|---------------------------|--------------------------|

G|----------------------4----|--------------------------|
D|-------------------------4-|--2---4~---5~----7--4-----|
A|--2------------------------|-----------------------5--|
E|---------------------------|--------------------------|

G|---------------------------|--------------------------|
D|---------------------------|------------7/--9--\7-----|
A|--3------------------------|--5--------------------5--|
E|------------------------5--|--------------------------|

G|---------------------------|--------------------------|
D|------------------------x--|--1-----------------------|
A|--7------------------------|-----2--2--2--2--2--2--2--|
E|---------------------------|--------------------------|

G|---------------------------|
D|---------------------------|
A|---2--2--2--2--3--2--3--5--|
E|---------------------------|

Pre-Chorus

G|---------------------------|--------------------------|
D|---------------------------|----------------7--5--4---|
A|--3--3--/10----\2--2--/9---|--\7--7--9--10----------5-|
E|---------------------------|--------------------------|

G|---------------------------|--------------------------|
D|---------------------------|--------------------------|
A|--3--3--/10----\5-----5--6-|--7--7--6--6--5--5--4--4--|
E|-------------------7-------|--------------------------|

G|---------------------------|---------------------7----|
D|---------------------------|---------------7--------9-|
A|--3--3--/10----\2--2--/9---|--7--7--9--10-----10------|
E|---------------------------|--------------------------|

G|---------------------------|
D|------------------7--5--4--|
A|---3--3-------5------------|
E|---------------------------|


Chorus

G|---------------------------|--------------------------|
D|---------------------5-----|--0--7/9-7--0-----0--5--4-|
A|---------7\----3--3-----3--|---------------2----------|
E|--0--0---------------------|--------------------------|

G|---------------------------|--------------------------|
D|---------2-----------------|--------------------------|
A|------------2--3--2--0-----|--5--3--2--0--------------|
E|---0--0-----------------3--|--------------3--3--2--2--|

G|---------------------------|--------------------------|
D|---------------------5-----|--0--7/9-7--0-----0--5--4-|
A|---------7\----3--3-----3--|---------------2----------|
E|--0--0---------------------|--------------------------|

G|---------------------------|--------------------------|
D|---------2-----------------|--------------------------|
A|------------2--3--2--0-----|--5--3--2--0--------------|
E|---0--0-----------------3--|--------------3--3--2--2--|

G|---------------------------|--------------------------|
D|---------------------5-----|--0--7/9-7--0-----0--5--4-|
A|---------7\----3--3-----3--|---------------2----------|
E|--0--0---------------------|--------------------------|

G|---------------------------|--------------------------|
D|---------2-----------------|--------------------------|
A|------------2--3--2--0-----|--5--3--2--0--------------|
E|---0--0-----------------3--|--------------3--3--2--2--|

G|---------------------------|--------------------------|
D|---------------------5-----|--0--7/9-7--0-----0--5--4-|
A|---------7\----3--3-----3--|---------------2----------|
E|--0--0---------------------|--------------------------|

G|---------------------------|--------------------------|
D|---------2-----------------|--------------------------|
A|------------2--3--2--0-----|--5--3--2--0--------------|
E|---0--0-----------------3--|--------------3--3--2--2--|


Outro

G|---------------------------|--------------------------|
D|---------------------------|--------------------------|
A|---------------3--3--3--3--|--5--5--5--5--2--2--2--2--|
E|---0--0--0--0--------------|--------------------------|

G|---------------------------|--------------------------|
D|---2--2--2--2--------------|--------------------------|
A|---------------3--3--3--3--|--5--5--5--5--------------|
E|---------------------------|--------------3--3--2--2--|

G|---------------------------|--------------------------|
D|---------------------------|--------------------------|
A|---------------3--3--3--3--|--5--5--5--5--2--2--3--5--|
E|--0--0--0--0---------------|--------------------------|

G|---------------------------|--------------------------|
D|---2--2--2--2--------------|--------------------------|
A|---------------3--3--3--3--|--5--5--5--5--------------|
E|---------------------------|--------------3--3--2--2--|

G|---------------------------|--------------------------|
D|---------------------------|--------------------------|
A|---------------3--3--3--3--|--5--5--5--5--2--2--3--5--|
E|---0--0--0--0--------------|--------------------------|

G|---------------------------|--------------------------|
D|---2--2--2--2--------------|--------------------------|
A|---------------3--3--3--3--|--5--5--5--5--------------|
E|---------------------------|--------------3--3--2--2--|

G|---------------------------|--------------------------|
D|---------------------------|--------------------------|
A|---------------3--3--3--3--|--5--5--5--5--2--2--3--5--|
E|--0--0--0--0---------------|--------------------------|

G|---------------------------|--------------------------|
D|---2--2--2--2--------------|--------------------------|
A|---------------3--3--3--3--|--5--5--5--5--------------|
E|---------------------------|--------------3--3--2--2--|

G|---------------------------|--------------------------|
D|---------------------------|--------------------------|
A|---------------3--3--3--3--|--5--5--5--5--2--2--3--5--|
E|---0--0--0--0--------------|--------------------------|

G|---------------------------|--------------------------|
D|---2--2--2--2--------------|--------------------------|
A|---------------3--3--3--3--|--5--5--5--5--------------|
E|---------------------------|--------------3--3--2--2--|

G|---------------------------|--------------------------|
D|---------------------------|--------------------------|
A|---------------3--3--3--3--|--5--5--5--5--2--2--3--5--|
E|--0--0--0--0---------------|--------------------------|

G|---------------------------|--------------------------|
D|---2--2--2--2--------------|--------------------------|
A|---------------3--3--3--3--|--5--5--5--5--------------|
E|---------------------------|--------------3--3--2--2--|

G|---------------------------|--------------------------|
D|---------------------------|--------------------------|
A|--7------------------------|--------------------------|
E|--0------------------------|--------------------------|

| /  slide up
| \  slide down
| h  hammer-on
| p  pull-off
| ~  vibrato
| +  harmonic
| x  Mute note
Suggest correction
Give kudos to tab author, rate the tab!
1 2 3 4 5
comments
print report bad tab
guest
You may want to rate the tab now too:
select rating
Please do not post tabs as comments. Select "correction" instead!