Oops, an error
Loading. Please wait.

Brothers In Arms Tab

version 1
version 1

Live

Whole song

52,510 views 39 this week
12 commentsread comments
1 2 3 4 5
x 27
add to favorites
launch autoscroll
font size
0
reset
how to read this tab
guitar tuner
backing track
0:00
0:00
×
Best way to learn
"Brothers In Arms"
Autoscroll
slow
fast
+/-
esc
set tempo
stop
e|-----------------------------------------------------------|
B|-------------------------------------------------4---------|
G|------------------------3-4--3-4-3-------------4---6-------|
D|-------6-8-6---6-8-6---------------6-4-6-6-----------------|
A|---4-6-----------------------------------------------------|
E|-----------------------------------------------------------|

e|-----------------------------------------------------------|
B|--4--------------------------------------------4-----------|
G|----6-4-3---6-4-3----------4-3--4-3-1---1-1--4---6---------|
D|----------6-------6----4-6------------1--------------------|
A|-----------------------------------------------------------|
E|-----------------------------------------------------------|

e|-------------------|------------------|-----------------------------|
B|----4-5-7----------|---4-6-7-4--------|-----------------------------|
G|-------------------|------------------|---4---6---------------------|
D|-------------------|------------------|-----------------------------|
A|-------------------|------------------|-----------------------------|
E|-------------------|------------------|-----------------------------|

e|--------------------|------------------|-----------------------------|
B|--------------------|------------------|-----------------------------|
G|-------8-11-8-----8-|--4-6-4-3---------|-----------------------------|
D|--------------11----|------------------|-----------------------------|
A|---/11--------------|------------------|-----------------------------|
E|--------------------|------------------|-----------------------------|

e|-----------------------------------------------------------------------------|
B|-------------------------------------------4---------------------------------|
G|----4-3-1-------6---4-6-4-3-------3------4---6-------------------------------|
D|----------------------------6-4-6---6-6--------------------------------------|
A|-----------------------------------------------------------------------------|
E|-----------------------------------------------------------------------------|

e|---------------------------|----------------------------|
B|---------------------------|--4-5-7---------------------|
G|----3---4-3----------------|----------------------------|
D|----4-------6-6/8----------|----------------------------|
A|---------------------------|----------------------------|
E|---------------------------|----------------------------|

e|----------------------------|---------------------|----------------------------|
B|----------7/(9)-7-6-4-7-4-4-|--5-4----------------|----------7/(9)-7-6-4-7-4-4-|
G|------8---------------------|------6-4------------|------8---------------------|
D|--6-8---8-------------------|---------------------|--6-8---8-------------------|
A|----------------------------|---------------------|----------------------------|
E|----------------------------|---------------------|----------------------------|

e|------------------------|---------------------|---------------------------|
B|------------------------|---------------------|---------------------------|
G|--4--6--4--3------------|---------------------|---------------------------|
D|------------------------|---------------------|---------------------------|
A|------------------------|---------------------|---------------------------|
E|------------------------|---------------------|---------------------------|

e|------------------------------------------------4---------------------------|
B|--------9-------------------------------------4---7-4----4-4----------------|
G|-11/(13)-(13)-11-8----------------(8)\6-4-6/(8)--------4-----6-4---6---4-3--|
D|-------------------9-8-6-6-6-------------------------------------6---6------|
A|----------------------------------------------------------------------------|
E|----------------------------------------------------------------------------|

e|----------------------------------------------------------------------------|
B|------4---------------------------------------------------------------------|
G|----4---6-------------------------------------------------------------------|
D|-6--------------------------------------------------------------------------|
A|----------------------------------------------------------------------------|
E|----------------------------------------------------------------------------|

e|------------------------|---------------------|---------------------------|
B|------------------------|-----------------4---|--5-4-----4----------------|
G|-------3-4---6----------|--3-4-3---4-6---4-6--|------6-4---4-6------------|
D|-----6-----6------------|--------6------------|---------------------------|
A|--/6--------------------|---------------------|---------------------------|
E|------------------------|---------------------|---------------------------|

e|---------------------------------------------------------------------------|
B|--------------------------------------------9-11-9----11-9-----------------|
G|------------------8--11/(13)\11-9----11/(13)--------------11-8----8--------|
D|----------------9---------------------------------------------9--9---------|
A|-------11-11-11------------------------------------------------11----------|
E|----4----------------------------------------------------------------------|

e|-----------------------------------4-4------------4------------------------|
B|---------------------------------4-4-4-4--4---4-4-4------------------------|
G|--11/(13)\11-9/(10)\9------6/(8)-------6--4---------6/(8)\6-4-6------------|
D|---------------------------------------------------------------------------|
A|---------------------------------------------------------------------------|
E|---------------------------------------------------------------------------|

e|---------------------------------------------------------------------------|
B|---------------------------------------------------------4-----------------|
G|-----4-3---6--4-3-------------4-6--6/(8)--6--4--3----4-6---4-6-------------|
D|---------6--------6-4-6---4-6---------------------6------------------------|
A|---------------------------------------------------------------------------|
E|---------------------------------------------------------------------------|

e|------------------------|---------------------|
B|------------------------|-4-5-7---------------|
G|--------4---------------|---------------------|
D|--4h6h8---6-8-----------|---------------------|
A|------------------------|---------------------|
E|------------------------|---------------------|

e|-----------------------------|--------------------------------|
B|-----------------11----------|-7\-----------4-5-4-------------|
G|---(15)\13-11-13----13-11----|-8\---------6-------4----4-6-4-3|
D|--------------------------13-|-9\-----4-6---------------------|
A|-----------------------------|-----/6-------------------------|
E|-----------------------------|--------------------------------|

e|------------------------------|---------------------|
B|----------11-12-11------------|------11-------------|
G|--13/(15)----------13-13/(15)===\-11----13-----11---|
D|------------------------------|---------------------|
A|------------------------------|---------------------|
E|------------------------------|---------------------|

e|-----------------------------------|
B|----5-4-------5--7-----------------|
G|--------6-4---4--6--------4--------|
D|------------4-6--4--4h6h8---6-8----|
A|-----------------------------------|
E|-----------------------------------|

e|----------------------------------------------------------------------------|
B|-----------9-----------------------------------9-11-9--11-9--11-9-----------|
G|---11/(13)---(13)-11-8------------------11/(13)-----------------------------|
D|-------------------------9-11-9-8-6-6---------------------------------------|
A|----------------------------------------------------------------------------|
E|----------------------------------------------------------------------------|

e|--------------------------4---------4---------------------------------------|
B|------------------------4---------4---7-4---4-------------------------------|
G|-11-9h11p9--------6/(8)-----6/(8)---------6---6-4-3-6-4-3-------------------|
D|----------------------------------------------------------6-4-6-------------|
A|----------------------------------------------------------------------------|
E|----------------------------------------------------------------------------|

e|----------------------------------------------------------------------------|
B|----------------------------------------------------7-9------9---9-11-12----|
G|--------4---6---6/(8)\/(8)\-4---4-------------6-8-9--------8---8------------|
D|----4-6-----------------------6-------------6-------------------------------|
A|----------------------------------------6-7---------------------------------|
E|----------------------------------------------------------------------------|

e|----------------------------------------------------------------------------|
B|--9-11-12-12--9-11-12-12---11-9---------9---9-11-12-12--9--12/(14)----------|
G|--------------------------------------8---8---------------------------------|
D|----------------------------------------------------------------------------|
A|----------------------------------------------------------------------------|
E|----------------------------------------------------------------------------|

e|----------------------------------------------------------------------------|
B|-(14)~~~~~~~~~----12/(14)-12-11-12/(14)-12-11-9-----------------------------|
G|------------------------------------------------11--------------------------|
D|---------------------------------------------------13p11p9h11--9-8-11-9-8---|
A|----------------------------------------------------------------------------|
E|----------------------------------------------------------------------------|

e|----------------------------------------------------------------------------|
B|--------------------------7----7-7-7---7-----7----7--7--7--7----7-7-7---7---|
G|-------------------------(8)\6-4-6-4---4----(8)\6-4--6--6--6----6-6-6---6---|
D|---------------9---11----------------6---------------6--6--6----6-6-6---6---|
A|--11-9-11-9-11--------------------------------------------------------------|
E|----------------------------------------------------------------------------|

e|------------------------------------------------------------4-4--7-4---4----|
B|---7------7---7---7-7-5-5-----4-5-4-----------------------4----------7---7--|
G|--(8)\6-4---4---4---------4-6-------6-4-3-----------6/(8)-------------------|
D|------------------------------------------6-4-6-----------------------------|
A|----------------------------------------------------------------------------|
E|----------------------------------------------------------------------------|

e|----------------------------------------------------------------------------|
B|--5-4-----------------------------------------------------------------------|
G|------6-------(16)\13------(16)\13-----(16)-(16)-13----11-13-11-------------|
D|--------6-------------13----------------------------------------------------|
A|----------------------------------------------------------------------------|
E|----------------------------------------------------------------------------|

e|----------------------------------------------------------------------------|
B|-----------------5-4--------------------------------------------------------|
G|---------4-----------6-4-----------4-3---------4---------4-4-4-4------------|
D|-----6-6---6-------------6-4-----4-----6-4---4---6-------6-6-4-6------------|
A|--/6-------------------------4-6-----------6--------------------------------|
E|----------------------------------------------------------------------------|

e|----------------------------------------------------------------------------|
B|-5-4------------------------------------------------------------------------|
G|-----6-4-----------4-----------------------------4-4--4--4-4----------------|
D|---------6-4-----4-----6-------------------------6-6--6--6-6----------------|
A|-------------4-6-----------------2-4/(6)------------------------------------|
E|----------------------------------------------------------------------------|

e|----------------------------------------------------------------------------|
B|--19-------19--19--19-19-17-17---------16-17-19-17-16-----------------------|
G|-(20)\18-16--16--16--------------16-18----------------18-16-18-18/(20)-(20)-|
D|----------------------------------------------------------------------------|
A|----------------------------------------------------------------------------|
E|----------------------------------------------------------------------------|

e|------------------------------16--16--19--19/(21)--(21)--19-18-16-----------|
B|-19/(21)-(21)---(21)--16--19--------------------------------------16--------|
G|---------------------------------------------------------------------18-16--|
D|----------------------------------------------------------------------------|
A|----------------------------------------------------------------------------|
E|----------------------------------------------------------------------------|

e|--------------------------------------------------------------4-------------|
B|------------------------------------------------------------4---7-4---------|
G|-----18-16-15----18-18-16-15----15-----------16-15----6/(8)---------6-4-3---|
D|--18----------18-------------18----18--16-18------------------------------6-|
A|----------------------------------------------------------------------------|
E|----------------------------------------------------------------------------|

e|----------------------------------------------------------------------------|
B|------------------4-5-4-----------------------------------------------------|
G|--6-4---4---6---6-------6-----4-3-------------------------------------------|
D|------6---------------------------6-4---6-----------------------------------|
A|--------------------------4-6---------6-------------------------------------|
E|----------------------------------------------------------------------------|



************************************

| /    Slide up
| (n)  Ghost note
| h    Hammer-on
| \    Slide down
| p    Pull-off

************************************
Suggest correction
comments
print report bad tab
12 comments total. Showing first comments.
+2 reply
salenko 10 Apr 14, 2004 08:00 PM

Fantastic tab!!!!!!!!!!!!!!!!!!
Note for Note and possibly one of the best guitar solos of all time.
If anyone likes dire straits then this is the only version of brothers in arms you'll ever need. The rest are nothing in comparision to this one. And this tab is perfect.

Good Job

+1 reply
Señor 110 Jun 03, 2004 08:00 PM

Thank you!!! this tab is as great as the song! 100% perfect. U ROCK! thank u so much for writing this tab!

-2 reply
##_Guitar-newb 30 Sep 26, 2004 08:00 PM

dude...shut the fukc up! not the only version of this song worth listening to!..........anyways..live is better and great tab..thanks!

guest
You may want to rate the tab now too:
select rating
Wanna post a correction for this tab? Suggest correction