Oops, an error
Loading. Please wait.

Brothers In Arms Tab

version 2
version 2

Whole song

117,445 views 144 this week
4 commentsread comments
1 2 3 4 5
accurate
x 16
add to favorites
launch autoscroll
font size
0
reset
how to read this tab
guitar tuner
Autoscroll
slow
fast
+/-
esc
set tempo
stop
Help us to improve Ultimate-Guitar.com Take our survey!
×
Author
Capo
4th fret
Briothers in arms "acoustic"                           
                                                     Mark KNOPFLER
Mark KNOPFLER (Capo 4)



             ^    T                      >                   ^    T          
     Q       Q    H            H         H           Q       Q    H          
e|-------<>12--------------|---------------------|-------<>12--------------|
B|-------<>12--------------|---------------------|-------<>12--------------|
G|-------<>12--------------|---------------------|-------<>12--------------|
D|---------------2---------|---------------------|---------------2---------|
A|---------------3p--------|--0h--------3--------|---------------3p--------|
E|--0----------------------|---------------------|--0----------------------|


              >                                                     >          
    H         E   E  E  S  S    Q    E  S  S H            H         Q.     E   
e|---------------------------|-------------------------|----------------------|
B|---------------------------|-------------------------|----------------------|
G|---------------------------|-------------------------|----------------------|
D|-------------------2--4p-2-|----------2h-4-2---------|-------------------4--|
A|--0h--------3--/2----------|---------------3p--------|--0h--------3---------|
E|---------------------------|--0----L-----------------|----------------------|


     Q     E  S  S S  S E  E  S S    W                 
e|--------------------------------|-------------------|
B|------------------------------0-|-------------------|
G|----------------------------0---|--2----------------|
D|--/5----/7--5p-4-0h-2-2--L------|--2----------------|
A|-----------------3--------------|--0----------------|
E|---0----------------------------|-------------------|


     E  E  E  S S S  S  E  Q       H        Q     Q       Q    E  S S H         
e|------------------------------|----------------------|-----------------------|
B|------------------------------|----------------------|-----------------------|
G|--/4--2--0--------------------|-----------0----------|-----------------------|
D|------------4-2-0h-2h-4--2----|-----------------4----|--2----L----2-2--------|
A|----------------3-------------|--0--------3s----5----|----------2---3--------|
E|---0--------------------------|----------------------|--0----L---------------|


                                NH    NH    NH        
    W                   Q       E     E     H         
e|-------------------|-------------------<>12--------|
B|-------------------|-------------<>12--------------|
G|-------------------|-------<>12--------------------|
D|-------------------|-------------------------------|
A|--0----------------|-------------------------------|
E|-------------------|--0----------------------------|


       NH                                                  
       Q.     E   E  E   E  E     E  E  E  E  E  E  E  E   
e|---<>L--------------------0--|--------------------------|
B|-------------------0h--3-----|-----------3--------3-----|
G|------------0----------------|--------0--------2-----2--|
D|---------------/5------------|-----2--------0-----------|
A|-----------------------------|--3-----------------------|
E|-----------------------------|--------------------------|


              |----3----|            
                    
    E  E  E  E  Q    Q    Q       E  E  E  E  E  E  E  E   
e|-----------------------------|--------------------------|
B|--------3----------0----3----|--0--------0--1--------1--|
G|-----------2--2--------------|--------0-----------0-----|
D|-----0--------0--------------|-----0-----------0--------|
A|-----------------------------|--------------------------|
E|--2-----------2--------------|--3-----------3-----------|


    E  E  E  E  E  E  E  E     E  E  E  E  E  E  E  E   
e|-----------------------0--|--------------------------|
B|--3--------3--3--3--3-----|-----------0-----------0--|
G|--------0-----2-----------|--------0-----------4-----|
D|-----0--------------------|-----2-----------4--------|
A|--------------------------|--------------2-----------|
E|--3-----------2-----------|--0-----------------------|


              |----3----|          
                      
    E  E  E  E  Q    Q    Q       E  E  E  E  E  E  E  E   
e|-----------------------------|--0-----------0-----------|
B|-----------0------------3----|-----------1--------------|
G|--------4-----4----5---------|--------0--------------0--|
D|-----4-----------------------|-----2--------------2-----|
A|--2-----------2--------------|--3--------------3--------|
E|-----------------------------|--------------------------|


    E  E  E  E  E  E  E  E     E  E  E  E  E  E  E  E   
e|-----------------------0--|--------------------------|
B|-----------3--3--3--3-----|-----------3-----------3--|
G|--2-----------2-----------|--------0-----------4-----|
D|--5-----5-----4-----------|-----2-----------4--------|
A|--5--5--------5-----------|--------------2-----------|
E|--------------------------|--0-----------------------|


    E  E  E  E  E   E  E   E     E  E  E  E  E  E  E  E   
e|----------------------------|--0-----------0-----------|
B|-----------3--3p--0--3p--0--|-----------1--------------|
G|--------4-----4-------------|--------0--------------0--|
D|-----4----------------------|-----2--------------2-----|
A|--2-----------2-------------|--3--------------3--------|
E|----------------------------|--------------------------|


              |----3----|    
                               
    E  E  E  E  Q    Q    Q       E  S S E   E  S E.  E   E   
e|-----------------------------|-----------------------------|
B|-------------------0----3----|--0---------------1---Lp--0--|
G|--2--------2--2--------------|-------2-Lp--0---------------|
D|--5-----5-----0--------------|-----2----------2------------|
A|--5--5-----------------------|----------------3------------|
E|--------------2--------------|--0--------------------------|


    H        Q.     S  S     E   E  E  S  S S  S E   Q       
e|------------------------|---------------------------------|
B|------------------------|---------------------------------|
G|--2---------------------|---------------------------------|
D|--0---------------5p-4h-|--5s--7--5--4s-2-0h-2-2---L------|
A|------------------------|-----------------3-------(3)p----|
E|-----------2------------|--0------------------------------|


    H         Q    Q        E  E  S S  S S S  S  E  E  S S    W                 
e|-----------------------|---------------------------------|-------------------|
B|-----------------------|-------------------------------0-|-------------------|
G|-----------------2p----|--L--0----2p-0---------------0---|--2----------------|
D|-----------------------|--------4------4-2p-0h-2--L------|--2----------------|
A|--0h--------3----------|-----------------3---------------|--0----------------|
E|-----------------------|--0------------------------------|-------------------|


    H        Q.     E     Q     E  E  E  E   E  E     E  E  E  E  E  E  E  S  S  
e|---------------------|------------------------0--|----------------------------|
B|---------------------|-----------------0h--3-----|-----------3--------3-------|
G|---------------------|-----------0---------------|--------0--------2-----2p-0-|
D|--2--------2------2--|--2----/5-----5------------|-----2--------0--------0----|
A|--2--------2------2--|--2------------------------|--3-------------------------|
E|--0--------0------0--|--0------------------------|----------------------------|


    S  E.  E  E  E  E   E  S  S    E  E  E  E  E  E  E  E   
e|------------------------------|--------------------------|
B|------------------0h--3--3p-0-|--0--------0--1--------1--|
G|--0h-2---L--2--2--------------|--------0-----------0-----|
D|--0---------------------------|-----0-----------0--------|
A|------------------------------|--------------------------|
E|--2------------2--------------|--3-----------3-----------|


    E  E  E  E  E  E  E  E     E  E  E  E  E  E  S  S  S  S  
e|-----------------------0--|-------------------------------|
B|--3--------3--3--3--3-----|-----------0--------3p-2p-0h-2-|
G|--------0-----2-----------|--------0----------------------|
D|-----0--------------------|-----2-----------4-------------|
A|--------------------------|--------------2----------------|
E|--3-----------2-----------|--0----------------------------|


              |----3----|      
                          
    E  E  E  E  Q    Q    Q       E  E  E  E  E  E  E  E   
e|-----------------------------|--0-----------0-----------|
B|------------------------3----|-----------1--------------|
G|-----------4--4----5---------|--------0--------------0--|
D|--4-----4-----4--------------|-----2--------------2-----|
A|-----2--------2--------------|--3--------------3--------|
E|-----------------------------|--------------------------|


    E  E  E  E  E  E  E   E     E  E  E  E  E  E  E  E   
e|-----------------0--2h--3--|--0--------2--------------|
B|-----------3--3-----3------|--------0--------------3--|
G|--2-----------2------------|--------------------4-----|
D|--5-----5-----0------------|-----2-----------4--------|
A|--5--5---------------------|--------------2-----------|
E|--------------2------------|--0-----------------------|


              |----3----|        
                        
    E  E  E  E  Q    Q    Q       E  E  E  E  E  E  E  E   
e|-----------------------------|--0-----------0-----------|
B|-----------0------------3----|-----------1--------------|
G|--------4-----4----5---------|--------0--------------0--|
D|-----4--------4--------------|-----2--------------2-----|
A|--2-----------2--------------|--3--------------3--------|
E|-----------------------------|--------------------------|


              |----3----|                           
        
    E  E  E  E  Q    Q    Q       E  S S E   E  S E.  E   E   
e|-----------------------------|-----------------------------|
B|-------------------0----3----|--0---------------1---Lp--0--|
G|--2--------2--2--------------|-------2-Lp--0---------------|
D|--5-----5-----5--------------|-----2----------2------------|
A|--5--5--------5--------------|----------------3------------|
E|-----------------------------|--0--------------------------|


                                 |--3--|     
              
    Q.     E  E  E  E  E     E  E  E  E  E  S S  S  S E  E   
e|------------------------|--0------------------------------|
B|---------------------0--|--0-----3--0---------------------|
G|--2------2--------2-----|--0-----------0------------------|
D|--0------------0--------|-----2-----------4-2p-0h-2-L--2--|
A|------------------------|-----------------3---------------|
E|------------2-----------|--0------------------------------|


    H        Q.     E     Q    E  S S S  S  E  E  S S    W                 
e|---------------------|------------------------------|-------------------|
B|---------------------|----------------------------0-|-------------------|
G|---------------------|-------2--0---------------0---|--2----------------|
D|--2---------------4--|--5---------4-2p-0h-2--L------|--2----------------|
A|--0--------3---------|--------------3---------------|--0----------------|
E|---------------------|--0---------------------------|-------------------|


    H        Q.     E     E  E  E  E  E  E  E  E     E  E  E  E  E   E  E  E   
e|---------------------|--------------------------|---------------------------|
B|---------------------|-----0--L--------0--------|--0---------------------0--|
G|---------------------|-----------0--2-----0--2--|--------0------------0-----|
D|--2--------2------2--|--2-----------0-----------|-----2--------2h--4--------|
A|--2--------2------2--|--2-----------------------|-----------2---------------|
E|--0--------0------0--|--0-----------2-----------|--0------------------------|


    Q    E  E  S E.  E  E     E  E  E  E   E   E   E  E   
e|-------------------------|-----------------------------|
B|----------0--3-3---0-----|-----------------------------|
G|--2----------0--------0--|--0-----0-----------------0--|
D|--0----------------------|-----2-----4s--5s--4s--2-----|
A|-------------------------|--3--------------------------|
E|-------2-----3-----------|-----------------------------|


    Q    E  E  E  E  E  E     E  E  E    E  E  E   E  E   
e|-------------------------|-----------------------------|
B|----------------0--------|--0--------0g1--0---------0--|
G|--2----------2-----0--2--|--------0----------2p--0-----|
D|--0-------0--------------|-----2-----------------------|
A|-------------------------|-----------------------------|
E|-------2-----------------|--0-------------3------------|


    Q    E  E  S E.  S E.     Q.     E  E  E  E  E   
e|---------------------0---|------------------------|
B|----------0--3-3---3-----|------------------------|
G|--2----------0-----------|--0------------0--0--0--|
D|--0----------------------|--2------2--2--2--2--2--|
A|-------------------------|--3------3--3-----3-----|
E|-------2-----3-----------|------------------------|


    E  E  S S S  S E  E  E  S  S    E  E  E  E  E  E  E  E   
e|-----------------0-------------|--------------------------|
B|------------0h-3----------3p-1-|-----------1-----------1--|
G|----------0------------0-------|--------2-----------0-----|
D|--------2-----------2----------|-----2-----------2--------|
A|--2--------------3-------------|--0-----------3-----------|
E|--0--0-------------------------|--------------------------|


    E  E  S S S  S E  E  E  S  S    E  E  E  S  S E  S S S  S S  S  
e|--0--------------0--------0h-2-|--0------------------------------|
B|--0--3--0---0h-3---------------|-----------3p-1------0-3p-0-3p-0-|
G|--0-------0------------0-------|--------2------------------------|
D|--------------------2----------|-----2-------------2-------------|
A|-----------------3-------------|--0-------------3----------------|
E|--0----------------------------|---------------------------------|


        |--3--|                                      
   
    E  E  E  E  E  S S  S  S Q       Q.     E  Q    Q     
e|--0-----------------------------|----------------------|
B|--------3--0--------------------|----------------------|
G|--------------0-----------------|------------0---------|
D|-----2-----------4-2p-0h-2-2----|---------2-------4----|
A|-----------------3--------------|--0---------3----5----|
E|--0-----------------------------|----------------------|


    Q.     S S Q    E  S S    W                   Q    Q    Q    E  E   
e|-------------------------|-------------------|-----------------------|
B|-----------------------0-|-------------------|-------0---------------|
G|--0------------------0---|--2----------------|--0---------2-------2--|
D|--2--------2-2----L------|--2----------------|--2--------------2-----|
A|---------2---3----L------|--0----------------|-----------------------|
E|--0----------------------|-------------------|--0---------0----------|


    Q    E  E   E  E   E  E     E  E  E  E  E  E  E  E   
e|------------------------0--|--------------------------|
B|-----------------0h--3-----|-----------3--------3-----|
G|--0-------0----------------|--------0--------2-----2--|
D|-------2-----/5------------|-----2--------0-----------|
A|---------------------------|--3-----------------------|
E|--0------------------------|--------------------------|


              |----3----|                             
   
    E  E  E  E  Q    Q    Q       E  E  E  E  E  E  E  E   
e|-----------------------------|--------------------------|
B|-------------------0----3----|--0--------0--1--------1--|
G|--------2--2--2--------------|--------0-----------0-----|
D|-----0-----------------------|-----0-----------0--------|
A|-----------------------------|--------------------------|
E|--2-----------2--------------|--3-----------3-----------|


    E  E  E  E  E  E  S  S E     E  E  E  E  E  E  E  E   
e|-------------------------0--|--------------------------|
B|--3-----3--3--3--0--3p-0----|-----------0-----------0--|
G|--------------2-------------|--------0-----------4-----|
D|-----0----------------------|-----2-----------4--------|
A|----------------------------|--------------2-----------|
E|--3-----------2-------------|--0-----------------------|


              |----3----|                   
             
    E  E  E  E  Q    Q    Q       E  E  E  E  E  E  E  E   
e|-----------------------------|--0-----------0-----------|
B|-----------0------------3----|-----------1--------------|
G|--------4-----4----5---------|--------0--------------0--|
D|-----4--------4--------------|-----2--------------2-----|
A|--2-----------2--------------|--3--------------3--------|
E|-----------------------------|--------------------------|


    Q.     E  E  E  E  E     E  E  E  E  E  E  E  E   
e|------------------------|--0-----------------------|
B|---------3--3--3--3--3--|--0--------3-----------3--|
G|--2---------2-----------|--0-----0-----4-----4-----|
D|--5---------------------|-----2-----------4--------|
A|--5---------------------|--------------2-----------|
E|------------2-----------|--0-----------------------|


              |----3----|                    
            
    E  E  E  E  Q    Q    Q       E  E  E  E  E  E  E  E   
e|-----------------------------|--0-----------0-----------|
B|-----------0------------3----|-----------1-----------1--|
G|--------4-----4----5---------|--------0-----------0-----|
D|-----4--------4--------------|-----2--------------------|
A|--2-----------2--------------|--3--------------3--------|
E|-----------------------------|--------------------------|


              |----3----|          
                         
    E  E  E  E  Q    Q    Q       E  S S E   E  S E.  E   E   
e|-----------------------------|-----------------------------|
B|--------3-----3----3----1----|--0---------------1---Lp--0--|
G|-----2-----2--2--------------|-------2-Lp--0---------------|
D|--0--------------------------|-----2----------2------------|
A|-----------------------------|----------------3------------|
E|--------------2--------------|--0--------------------------|


                                |--3--|         
                               
    H        E  E  E  E     E  E  E  E  E  S S  S  S Q       H        Q    Q     
e|-----------------------|--0-----------------------------|---------------------|
B|--------------------0--|--0-----3--0--------------------|---------------------|
G|--2--------------2-----|--0-----------0-----------------|---------------------|
D|--0-----------0--------|-----2-----------4-2p-0h-2-L----|----------------4----|
A|-----------------------|-----------------3--------------|--0--------3---------|
E|-----------2-----------|--0-----------------------------|---------------------|


    Q    E  S  S S  S  E  E  S S    H        Q    E  E     Q    E  E  H          
e|-------------------------------|----------------------|-----------------------|
B|-----------------------------0-|----------------------|-----------------------|
G|---------------------------0---|-------------------0--|----------0------------|
D|--5----7--5p-4-2p-0h-2--L------|--2--------2----2-----|-------2-----2---------|
A|---------------3---------------|--0--------0----------|-------------3p--------|
E|--0----------------------------|----------------------|--0--------------------|


    Q.     E  Q    Q       Q.     S S H            Q.     E  Q    Q     
e|----------------------|-----------------------|----------------------|
B|----------------------|-----------------------|----------------------|
G|------------0---------|-----------------------|------------0---------|
D|---------2-------4----|--2--------2-2---------|---------2-------4----|
A|--0---------3----5----|---------2---3p--------|--0---------3----5----|
E|----------------------|--0--------------------|----------------------|


    Q.     S S H            Q.     E  Q    Q       Q.     S S H          
e|-----------------------|----------------------|-----------------------|
B|-----------------------|----------------------|-----------------------|
G|-----------------------|------------0---------|-----------------------|
D|--2--------2-2---------|---------2-------4----|--2--------2-2---------|
A|---------2---3p--------|--0---------3----5----|---------2---3p--------|
E|--0--------------------|----------------------|--0--------------------|


                              ^                  
    Q.     E  Q    Q          W                  
e|----------------------|--<>12----------------||
B|----------------------|--<>12----------------||
G|------------0---------|--<>12----------------||
D|---------2-------4----|----------------------||
A|--0---------3----5----|----------------------||
E|----------------------|--<>12----------------||



************************************

| g  Grace note
| h  Hammer-on
| p  Pull-off
| /  Slide up 

************************************
Suggest correction
comments
print report bad tab
4 comments total. Showing first comments.
0 reply
angusrokks 60 wrote on February 6 2008, 12:32 pm

u spelt brothers wrong lol

0 reply
mod_of_rock 10 wrote on January 2 2009, 02:41 pm

a time signature would be helpful, or verse markings

0 reply
liquidenergy 10 wrote on November 14 2015, 09:31 am

it's only me thinking this is by far the best among the others 30 BIA tabs? ..wonder why just 4 stars..

guest
You may want to rate the tab now too:
select rating
Please do not post tabs as comments. Select "correction" instead!