Oops, an error
Loading. Please wait.

Brothers In Arms Tab

version 3
version 3

Whole song

104,907 views 240 this week
3 commentsread comments
1 2 3 4 5
accurate
x 9
add to favorites
launch autoscroll
font size
0
reset
how to read this tab
guitar tuner
Autoscroll
slow
fast
+/-
esc
set tempo
stop
Help us to improve Ultimate-Guitar.com Take our survey!
×
Author
Difficulty
intermediate
(This is the tab from the version also attached to the official music video.)


[Intro]

e|---------------------------------------------------------------------|
B|---------------------------------------------------------------------|
G|---------------------------------------------------------------------|
D|--4/6--6x--8h6-----6--8-------------8h9-9/11-9--8--------------------|
A|--4/6-------------------7-----4--------------------11-9-11-11~~~~----|
E|---------------------------------------------------------------------|


e|---------------------------------------------------------------------|
B|---------------------------------------------------------------------|
G|---------------------------------------------------------------------|
D|----13-11~~~~--------------------------------------------------------|
A|14-------------------------------------------------------------------|
E|---------------------------------------------------------------------|

These mist covered mountains

e|---------------------------------------------------------------------|
B|---------------------------------------------------------------------|
G|---------------------------------------------------------------------|
D|--13h11/9-9h11-------------------------------------------------------|
A|---------------------------------------------------------------------|
E|---------------------------------------------------------------------|

Are home now for me

e|---------------------------------------------------------------------|
B|---------------------------------------------------------------------|
G|---------------------------------------------------------------------|
D|-----------------13~~----14~---/16~~---------------------------------|
A|---------------------------------------------------------------------|
E|---------------------------------------------------------------------|

But my home is the low lands

e|---------------------------------------------------------------------|
B|---------------------------------------------------------------------|
G|---------------------------------------------------------------------|
D|--13-11x---11h13~~~~~~-----------------------------------------------|
A|---------------------------------------------------------------------|
E|---------------------------------------------------------------------|

And always will be


e|----------------------------------------------------------------------|
B|----------------------------------------------------------------------|
G|----------------------------------------------------------------------|
D|---13~~----/14~~/11~~~------------------------------------------------|
A|----------------------------------------------------------------------|
E|----------------------------------------------------------------------|

Someday you'll return to

e|---------------------------------------------------------------------|
B|---------------------------------------------------------------------|
G|---------------------------------------------------------------------|
D|--13-----------------------------------------------------------------|
A|-----13~~~~~~--------------------------------------------------------|
E|---------------------------------------------------------------------|

Your valley and your farms

e|---------------------------------------------------------------------|
B|---------------------------------------------------------------------|
G|---------------------------------------------------------------------|
D|--18~~~~~~~~-----16~~~~~~~~~~----------------------------------------|
A|---------------------------------------------------------------------|
E|---------------------------------------------------------------------|

And you'll no longer burn

To Brothers in Arms

e|---------------------------------------------------------------------|
B|---------------------------------------------------------------------|
G|---------------------------------------------------------------------|
D|-----14----13-11~~~~-----9h8h9-9/11-9-8------------------------------|
A|-----14----------------------------------11-9-11-11------------------|
E|---------------------------------------------------------------------|

e|---------------------------------------------------------------------|
B|---------------------------------------------------------------------|
G|---------------------------------------------------------------------|
D|--9/11~~~~-9-8-11-9-8------------9-13-11~~/13------------------------|
A|----------------------11-9-11-11-------------------------------------|
E|---------------------------------------------------------------------|

Through these fields of destruction

e|---------------------------------------------------------------------|
B|---------------------------------------------------------------------|
G|---------------------------------------------------------------------|
D|--13h11-11x---11/13~~~~----------------------------------------------|
A|---------------------------------------------------------------------|
E|---------------------------------------------------------------------|

Baptisms of fire

e|---------------------------------------------------------------------|
B|---------------------------------------------------------------------|
G|---------------------------------------------------------------------|
D|---13~~--------14~~~-----14/16~~-------------------------------------|
A|---------------------------------------------------------------------|
E|---------------------------------------------------------------------|

I've watched all your suffering

e|---------------------------------------------------------------------|
B|---------------------------------------------------------------------|
G|---------------------------------------------------------------------|
D|---16--15-13-15------------------------------------------------------|
A|----------------13~~-------------------------------------------------|
E|---------------------------------------------------------------------|

As the battles raged higher

e|---------------------------------------------------------------------|
B|---------------------------------------------------------------------|
G|---------------------------------------------------------------------|
D|-------------------------9~~~~-----11~~~~----------------------------|
A|---------------------------------------------------------------------|
E|---------------------------------------------------------------------|

And though they did hurt me so bad

e|---------------------------------------------------------------------|
B|---------------------------------------------------------------------|
G|-----13--11-10--11---------------------------------------------------|
D|--------------------13-----------------------------------------------|
A|---------------------------------------------------------------------|
E|---------------------------------------------------------------------|

In the fear and alarm

e|---------------------------------------------------------------------|
B|---------------------------------------------------------------------|
G|---------------------------------------------------------------------|
D|--9~~---11~~--9~-----8~~---------------------------------------------|
A|---------------------------------------------------------------------|
E|---------------------------------------------------------------------|

You did not desert me          My Brothers in Arms

e|---------------------------------------------------------------------|
B|---------------------------------------------------------------------|
G|---------------------------------------------------------------------|
D|-----------------------------------9-14~~-13-11~---------------------|
A|---------------------------------------------------------------------|
E|---------------------------------------------------------------------|

Solo (bridge):

e|---------------------------------------------------------------------|
B|---------------------------------------------------------------------|
G|-------13~~------11--------------------------------------------------|
D|---13---------------13--------------------------8h9--9/11--9-8-------|
A|-----------------------14-13--11-----11-11~~-------------------11----|
E|----------------------------------14---------------------------------|

e|---------------------------------------------------------------------|
B|---------------------------------------------------------------------|
G|---------------------------------------------------------------------|
D|-----------------------13--11----/13~~-------11----------------------|
A|-9---11-11---------14------------------------------------------------|
E|---------------------------------------------------------------------|

There's so many different worlds

e|---------------------------------------------------------------------|
B|---------------------------------------------------------------------|
G|---------------------------------------------------------------------|
D|--------8/9---13-11~~------------------------------------------------|
A|--9/11---------------------------------------------------------------|
E|---------------------------------------------------------------------|

So many different suns

e|---------------------------------------------------------------------|
B|---------------------------------------------------------------------|
G|---------------------------------------------------------------------|
D|---8h9-8----9-9/11~~-------------------------------------------------|
A|---------11----------------------------------------------------------|
E|---------------------------------------------------------------------|

And we have just one world

e|---------------------------------------------------------------------|
B|---------------------------------------------------------------------|
G|---------------------------------------------------------------------|
D|---14--13--11-----13-11~~~~~~----------------------------------------|
A|--------------14-----------------------------------------------------|
E|---------------------------------------------------------------------|

But we live in different ones

e|---------------------------------------------------------------------|
B|---------------------------------------------------------------------|
G|---------------------------------------------------------------------|
D|---------------13-11/13---11/9---13-11---------11/13--13/15-13--11/9-|
A|-11~~~~--11x-14------------------------11-9-11-----------------------|
E|---------------------------------------------------------------------|

e|---------------------------------------------------------------------|
B|---------------------------------------------------------------------|
G|-----11----11----11/13--11-------------------------------------------|
D|--13----13----13-----------13-------------------------11x--13-11-----|
A|------------------------------14-13-11----11-11----14------------14x-|
E|---------------------------------------14----------------------------|


e|---------------------------------------------------------------------|
B|---------------------------------------------------------------------|
G|---------------------------------------------------------------------|
D|-------13--11----13~~---11~~-----------------------------------------|
A|---14-------------------------14~~~~13-------------------------------|
E|---------------------------------------------------------------------|


Now the sun's gone to hell

e|---------------------------------------------------------------------|
B|---------------------------------------------------------------------|
G|---------------------------------------------------------------------|
D|--11x-11-------------------------------------------------------------|
A|--11x-11-11/13-------------------------------------------------------|
E|---------------------------------------------------------------------|

And the moon's riding high

e|---------------------------------------------------------------------|
B|---------------------------------------------------------------------|
G|---------------------------------------------------------------------|
D|-------------------------13~~~~--14~~~~--14/16~~~~~~-----------------|
A|---------------------------------------------------------------------|
E|---------------------------------------------------------------------|

Let me bid your farewell

e|---------------------------------------------------------------------|
B|---------------------------------------------------------------------|
G|------15-15~~----11-11h13-11~~---------------------------------------|
D|---------------------------------------------------------------------|
A|---------------------------------------------------------------------|
E|---------------------------------------------------------------------|

Every man has to die

e|---------------------------------------------------------------------|
B|---------------------------------------------------------------------|
G|---------------------------------------------------------------------|
D|----/13-------------11-13-14---11------------------------------------|
A|----------11-13-14-----------------14~~--13~~------------------------|
E|---------------------------------------------------------------------|

But its written in the starlight

e|---------------------------------------------------------------------|
B|---11x---------------------------------------------------------------|
G|-------13x-11--13-13/15-15~~~~~~-------------------------------------|
D|---------------------------------------------------------------------|
A|---------------------------------------------------------------------|
E|---------------------------------------------------------------------|

And every line on your palm

e|---------------------------------------------------------------------|
B|---------11x---------------------------------------------------------|
G|-----11x-----13~~~~/11~~~~~~-----------------------------------------|
D|---------------------------------------------------------------------|
A|---------------------------------------------------------------------|
E|---------------------------------------------------------------------|

We're fools to make war                 On our Brothers in Arms

e|---------------------------------------------------------------------|
B|---------------------------------------------------------------------|
G|---------------------------------------------------------------------|
D|-------------------14-13----11x------------14---13--11---------------|
A|-----------------------------------------14--------------------------|
E|---------------------------------------------------------------------|


[Solo]

e|----------------------------------------|
B|----------------------------------------|
G|----/13----11---------------------------|
D|--------------13------------------------|
A|-----------------14-13-11----11-11------|
E|--------------------------14------------|

e|---------------------------------------------------------------------|
B|---------------------------------------------------------------------|
G|------13-11----13-15-13---11-13-11--13-11----------------------------|
D|---13-------------------------------------14-13-11x-11~~-------------|
A|---------------------------------------------------------------------|
E|---------------------------------------------------------------------|


e|---------------------------------------------------------------------|
B|---------------------------------------------------------------------|
G|---------------------------------------------------------------------|
D|-------------------------------------------9~~-/11x------------------|
A|--16/18---16--14--14-14---16-16-16-16--------------------------------|
E|---------------------------------------------------------------------|


e|---------------------------------------------------------------------|
B|---------------------------------------------------------12-12~~-----|
G|-------------------------------------------------13---15-------------|
D|-----------------11x--11-11/13---11x------13--13---------------------|
A|---11---11-13-14-----------------------------------------------------|
E|---------------------------------------------------------------------|


e|----------------------------------------|
B|--------------------12-12~~----14~~-----|
G|-------------13--15---------------------|
D|--11/13---13----------------------------|
A|----------------------------------------|
E|----------------------------------------|


e|---------------------------------------------------------------------|
B|---14~~---*12-11-----------------------------------------------------|
G|----------------13-11-13-11------------------------------------------|
D|----------------------------14-13-11---------------------------------|
A|--------------------------------------14-13-11-13-11-----11-11-------|
E|-----------------------------------------------------14--------------|

Note: Fade out slowly starting from *.



************************************

| x  Dead note
| h  Hammer-on
| /  Slide up
| ~  Vibrato

************************************
Suggest correction
comments
print report bad tab
3 comments total.
0 reply
Geordie99 10 wrote on September 20 2013, 04:41 am

There are a few mistakes but I could work them out pretty easily. Near perfect. Good job. 4 stars.

0 reply
Geordie99 10 wrote on September 20 2013, 04:49 am

There's one mistake in the intro (the last note is a semitone too high on the tab):

---------------------------------------------------------------------|
---------------------------------------------------------------------|
---------------------------------------------------------------------|
--4/6--6x--8h6-----6--8-------------8h9-9/11-9--8--------------------|
--4/6-------------------7-----4--------------------11-9-11-11~~~~----|
---------------------------------------------------------------------|

---------------------------------------------------------------------|
---------------------------------------------------------------------|
---------------------------------------------------------------------|
----13-11~~~~--------------------------------------------------------|
14-------------------------------------------------------------------|
---------------------------------------------------------------------|

0 reply
niick16 32 wrote on July 25 2014, 12:59 pm

Changed some of it! Thanks for the reviews.

guest
You may want to rate the tab now too:
select rating
Please do not post tabs as comments. Select "correction" instead!