Oops, an error
Loading. Please wait.

Brothers In Arms Tab

version 4
version 4

Whole song

227,079 views 141 this week
19 commentsread comments
1 2 3 4 5
accurate
x 78
add to favorites
launch autoscroll
font size
0
reset
how to read this tab
guitar tuner
Autoscroll
slow
fast
+/-
esc
set tempo
stop
Help us to improve Ultimate-Guitar.com Take our survey!
×
Artist :Dire straits
Album : Brothers in Arms
Song : Brothers in Arms


This is the 100 % correct tab , hope u'll enjoy it !


[Intro]

      0:37
e|---------------------------------------------------------------------|
B|---------------------------------------------------------------------|
G|---------------------------------------------------------------------|
D|--4/6--6x--8h6-----6--8-------------8h9-9/11-9--8--------------------|
A|--4/6-------------------7-----4--------------------11-9-11-11~~~~----|
E|---------------------------------------------------------------------|


e|---------------------------------------------------------------------|
B|---------------------------------------------------------------------|
G|---------------------------------------------------------------------|
D|----13-12~~~~----11/13--11-9-8------------------bend9/11-------------|
A|14----------------------------11-9-11-11/13-11-----------11-11h13-11-|
E|---------------------------------------------------------------------|

These mist covered mountains

e|---------------------------------------------------------------------|
B|---------------------------------------------------------------------|
G|---------------------------------------------------------------------|
D|--13h11/9-9h11-------------------------------------------------------|
A|---------------------------------------------------------------------|
E|---------------------------------------------------------------------|

Are home now for me

e|---------------------------------------------------------------------|
B|---------------------------------------------------------------------|
G|---------------------------------------------------------------------|
D|-----------------13~~----14~---/16~~---------------------------------|
A|---------------------------------------------------------------------|
E|---------------------------------------------------------------------|

But my home is the low lands

e|---------------------------------------------------------------------|
B|---------------------------------------------------------------------|
G|---------------------------------------------------------------------|
D|--13-11x---11h13~~~~~~-----------------------------------------------|
A|---------------------------------------------------------------------|
E|---------------------------------------------------------------------|

And always will be


e|----------------------------------------------------------------------|
B|----------------------------------------------------------------------|
G|----------------------------------------------------------------------|
D|---13~~----/14~~/11~~~------------------------------------------------|
A|----------------------------------------------------------------------|
E|----------------------------------------------------------------------|

Someday you'll return to

e|---------------------------------------------------------------------|
B|---------------------------------------------------------------------|
G|---------------------------------------------------------------------|
D|--13-8~~~~~~---------------------------------------------------------|
A|---------------------------------------------------------------------|
E|---------------------------------------------------------------------|

Your valley and your farms

e|---------------------------------------------------------------------|
B|---------------------------------------------------------------------|
G|---------------------------------------------------------------------|
D|--18~~~~~~~~-----16~~~~~~~~~~----------------------------------------|
A|---------------------------------------------------------------------|
E|---------------------------------------------------------------------|

And you'll no longer burn

To brothers in arms

e|---------------------------------------------------------------------|
B|---------------------------------------------------------------------|
G|---------------------------------------------------------------------|
D|-----14----13-11~~~~-----9h8h9-9/11-9-8------------------------------|
A|-----14----------------------------------11-9-11-11------------------|
E|---------------------------------------------------------------------|

e|---------------------------------------------------------------------|
B|---------------------------------------------------------------------|
G|---------------------------------------------------------------------|
D|--9/11~~~~-9-8-11-9-8------------9-13-11~~/13------------------------|
A|----------------------11-9-11-11-------------------------------------|
E|---------------------------------------------------------------------|

Through these fields of destruction

e|---------------------------------------------------------------------|
B|---------------------------------------------------------------------|
G|---------------------------------------------------------------------|
D|--13h11-11x---11/13~~~~----------------------------------------------|
A|---------------------------------------------------------------------|
E|---------------------------------------------------------------------|

Baptisms of fire

e|---------------------------------------------------------------------|
B|---------------------------------------------------------------------|
G|---------------------------------------------------------------------|
D|---13~~--------14~~~-----14/16~~-------------------------------------|
A|---------------------------------------------------------------------|
E|---------------------------------------------------------------------|

I've watched all your suffering

e|---------------------------------------------------------------------|
B|---------------------------------------------------------------------|
G|---------------------------------------------------------------------|
D|---16--15-13-15------------------------------------------------------|
A|----------------13~~-------------------------------------------------|
E|---------------------------------------------------------------------|

As the battles raged higher

e|---------------------------------------------------------------------|
B|---------------------------------------------------------------------|
G|---------------------------------------------------------------------|
D|-------------------------9~~~~-----8~~~~-----------------------------|
A|---------------------------------------------------------------------|
E|---------------------------------------------------------------------|

And though they did hurt me so bad

e|---------------------------------------------------------------------|
B|---------------------------------------------------------------------|
G|-----13--11-10--11---------------------------------------------------|
D|--------------------13-----------------------------------------------|
A|---------------------------------------------------------------------|
E|---------------------------------------------------------------------|

In the fear and alarm

e|---------------------------------------------------------------------|
B|---------------------------------------------------------------------|
G|--9~~---11~~--9~-----8~~---------------------------------------------|
D|---------------------------------------------------------------------|
A|---------------------------------------------------------------------|
E|---------------------------------------------------------------------|

You did not desert me

My brothers in arms

e|---------------------------------------------------------------------|
B|---------------------------------------------------------------------|
G|--9-14~~-13-11~------------------------------------------------------|
D|---------------------------------------------------------------------|
A|---------------------------------------------------------------------|
E|---------------------------------------------------------------------|

[Bridge]

e|---------------------------------------------------------------------|
B|---------------------------------------------------------------------|
G|-------13~~------11--------------------------------------------------|
D|---13---------------13--------------------------8h9--9/11--9-8-------|
A|-----------------------14-13--11-----11-11~~-------------------11----|
E|----------------------------------14---------------------------------|

e|---------------------------------------------------------------------|
B|---------------------------------------------------------------------|
G|---------------------------------------------------------------------|
D|-----------------------13--11----/13~~-------11----------------------|
A|-9---11-11---------14------------------------------------------------|
E|---------------------------------------------------------------------|

There's so many different worlds

e|---------------------------------------------------------------------|
B|---------------------------------------------------------------------|
G|---------------------------------------------------------------------|
D|--------8/9---13-11~~------------------------------------------------|
A|--9/11---------------------------------------------------------------|
E|---------------------------------------------------------------------|

So many different suns

e|---------------------------------------------------------------------|
B|---------------------------------------------------------------------|
G|---------------------------------------------------------------------|
D|---8h9-8----9-9/11~~-------------------------------------------------|
A|---------11----------------------------------------------------------|
E|---------------------------------------------------------------------|

And we have just one world

e|---------------------------------------------------------------------|
B|---------------------------------------------------------------------|
G|---------------------------------------------------------------------|
D|---14--13--11-----13-11~~~~~~----------------------------------------|
A|--------------14-----------------------------------------------------|
E|---------------------------------------------------------------------|

But we live in different ones

e|---------------------------------------------------------------------|
B|---------------------------------------------------------------------|
G|-----11--------------------------------------------------------------|
D|-----11--------13-11/13---11/9---13-11---------11/13--13/15-13--11/9-|
A|-11/-11--11--14------------------------11-9-11-----------------------|
E|-----11--------------------------------------------------------------|

e|---------------------------------------------------------------------|
B|---------------------------------------------------------------------|
G|-----11----11----11/13--11-------------------------------------------|
D|--13----13----13-----------13-------------------------11x--13-11-----|
A|------------------------------14-13-11----11-11----14------------14x-|
E|---------------------------------------14----------------------------|


e|---------------------------------------------------------------------|
B|---------------------------------------------------------------------|
G|---------------------------------------------------------------------|
D|-------13--11----13~~---11~~-----------------------------------------|
A|---14-------------------------14~~~~---------------------------------|
E|---------------------------------------------------------------------|


Now the sun's gone to hell

e|---------------------------------------------------------------------|
B|---------------------------------------------------------------------|
G|---------------------------------------------------------------------|
D|--11-x-11------------------------------------------------------------|
A|--11-x-11-11/13------------------------------------------------------|
E|---------------------------------------------------------------------|

And the moon's riding high

e|---------------------------------------------------------------------|
B|---------------------------------------------------------------------|
G|---------------------------------------------------------------------|
D|-------------------------13~~~~--14~~~~--14/16~~~~~~-----------------|
A|---------------------------------------------------------------------|
E|---------------------------------------------------------------------|

Let me bid your farewell

e|---------------------------------------------------------------------|
B|---------------------------------------------------------------------|
G|-----/15-15~~----11-11h13-11-----------------------------------------|
D|---------------------------------------------------------------------|
A|---------------------------------------------------------------------|
E|---------------------------------------------------------------------|

Every man has to die

e|---------------------------------------------------------------------|
B|---------------------------------------------------------------------|
G|---------------------------------------------------------------------|
D|-----13-------------11-13-14---11x-----------------------------------|
A|----------11-13-14-----------------14~~--13~~------------------------|
E|---------------------------------------------------------------------|

But its written in the starlight

e|---------------------------------------------------------------------|
B|---11x---------------------------------------------------------------|
G|-------13x-11--13-13/15-15~~~~~~-------------------------------------|
D|---------------------------------------------------------------------|
A|---------------------------------------------------------------------|
E|---------------------------------------------------------------------|

And every line on your palm

e|---------------------------------------------------------------------|
B|---------11x---------------------------------------------------------|
G|-----11x-----13~~~~/11~~~~~~-----------------------------------------|
D|---------------------------------------------------------------------|
A|---------------------------------------------------------------------|
E|---------------------------------------------------------------------|

We're fools to make war         On our brothers in arms

e|---------------------------------------------------------------------|
B|---------------------------------------------------------------------|
G|-------------------------------------------14---13--11---------------|
D|-------------------14-13----11x----------14--------------------------|
A|---------------------------------------------------------------------|
E|---------------------------------------------------------------------|

[Solo]

e|----------------------------------------|
B|----------------------------------------|
G|----/13----11---------------------------|
D|--------------13------------------------|
A|-----------------14-13-11----11-11------|
E|--------------------------14------------|

e|---------------------------------------------------------------------|
B|---------------------------------------------------------------------|
G|------13-11----13-15-13---11-13-11--13-11----------------------------|
D|---13-------------------------------------14-13-11-11----------------|
A|---------------------------------------------------------------------|
E|---------------------------------------------------------------------|


e|---------------------------------------------------------------------|
B|---------------------------------------------------------------------|
G|---------------------------------------------------------------------|
D|-------------------------------------------9x---11x------------------|
A|--16/18---16--14--14-14---16-16-16-16--------------------------------|
E|---------------------------------------------------------------------|


e|---------------------------------------------------------------------|
B|---------------------------------------------------------12-12~~-----|
G|-------------------------------------------------13---15-------------|
D|-----------------11x--11-11/13---11x------13--13---------------------|
A|---11---11-13-14-----------------------------------------------------|
E|---------------------------------------------------------------------|


e|----------------------------------------|
B|--------------------12-12~~----14~~-----|
G|-------------13--15---------------------|
D|--11/13---13----------------------------|
A|----------------------------------------|
E|----------------------------------------|


e|---------------------------------------------------------------------|
B|---14~~---12-11------------------------------------------------------|
G|----------------13-11-13-11------------------------------------------|
D|----------------------------14-13-11---------------------------------|
A|--------------------------------------14-13-11-13-11-----11-11-------|
E|-----------------------------------------------------14--------------|


e|---------------------------------------------------------------------|
B|---------------------------------------------------------------------|
G|---------------------------------------------------------------------|
D|-------11x--13h11----------11x--13h11--------------------------------|
A|---14-------------14x------------------14x---------------------------|
E|---------------------------------------------------------------------|


e|---------------------------------------------------------------------|
B|---------------------------------------------------------------------|
G|---11-x-x-x--11-x-11--9~~------16--16--16----13----------------------|
D|---11-x-x-x--11-x-11--9~~------16--16--16----13----------------------|
A|---11-x-x-x--11-x-11--9~~--------------------------------------------|
E|---------------------------------------------------------------------|

       played softly                  6:00
e|---------------------------------------------------------------------|
B|---------------------------------------------------------------------|
G|------------------------------------11--14--11--14---13--x-----------|
D|--14-13-11--------------------------11--14--11--14---13--x-----------|
A|-----------14-13--11---9h11---------11--14--11--14---13--x-----------|
E|---------------------------------------------------------------------|

  6:04
e|----------------------------------14--11-----------------------------|
B|------11-12/14--------12/14-------------------------------16--14-----|
G|---13-----------16-15-------16------------16-15--13----16------------|
D|13-------------------------------------------------------------------|
A|---------------------------------------------------------------------|
E|---------------------------------------------------------------------|


e|-11-12--9-11-9-------------------------------------------------------|
B|---------------12---9------------------------------------------------|
G|---------------------------------------------------------------------|
D|---------------------------------------------------------------------|
A|---------------------------------------------------------------------|
E|---------------------------------------------------------------------|



************************************

| x  Dead note
| h  Hammer-on
| /  Slide up
| ~  Vibrato

************************************
Suggest correction
What's this?
You can suggest a correction to this tab. Community and Mods will review your correction and vote to approve or reject it.
comments
print report bad tab
19 comments total. Showing first comments. show 1 bad comment
+1 reply
jakishere 84 wrote on February 11 2006, 12:43 pm

some of the notes just dont sound correct sorry

0 reply
Hi-Tone 1,747 wrote on September 22 2006, 10:11 am

sounds okay to me

guest
You may want to rate the tab now too:
select rating
Please do not post tabs as comments. Select "correction" instead!