Oops, an error
Loading. Please wait.

Brothers In Arms Tab

version 9
version 9

Whole song

53,826 views 921 this week
6 commentsread comments
1 2 3 4 5
x 67
add to favorites
launch autoscroll
font size
0
reset
how to read this tab
guitar tuner
backing track
0:00
0:00
×
Best way to learn
"Brothers In Arms"
Autoscroll
slow
fast
+/-
esc
set tempo
stop
About this tab version
I know there is already quite few brothers in arms tabs and chords but none have both the chords and the licks in one.
I know there is already quite few brothers in arms tabs and chords but none have both the chords
and the licks in one. All credit goes to Justin Sandercoe who has a lesson of this song. He does
a fantastic job of teaching this song so if you trying to learn this check out his lesson:
https://www.youtube.com/watch?v=lZ-IrqzCEw4

MK uses a volume pedal for this song so many notes swell in and out. I marked thes notes with *.


[Intro] (and played during solo's)

G#m / E / C#m / E
G#m / E / C#m / E
G#m / E / C#m 
G#m

e|----------------|---------------------------|--------------------------------------|
B|----------------|-----------------------4---|--------------------------------------|
G|------3-----3-4-|--3-4/6--4-3---------4---6-|-*6b8--6-4-3-------3-------*4\3-------|
D|----6---6-6-----|-------------6-4-6-6-------|--------------6-4-6---6-6----------6-6|
A|-/6-------------|---------------------------|---------------------------------6----|
E|----------------|---------------------------|--------------------------------------|


[Verse]

 (G#m)                    E       F#
 These mist covered mountains
e|-----------|
B|-----------|
G|--6B8--4-6-|
D|-----------|
A|-----------|
E|-----------|

                   B  Bsus4 B
Are a home now for me

                     G#  D#m
 But my home is the lowlands
e|------------|
B|------------|
G|--8p6--6h8--|
D|------------|
A|------------|
E|------------|

                E     F#sus   F#
And always will be

                  G#m   D#m
 Someday you'll return to
e|------|
B|------|
G|--8---|
D|---8--|
A|------|
E|------|
                       E      F#sus   F#
Your valleys and your farms

                      G#m
And you'll no longer burn to be

      E      F#sus   F#
 Brothers in arms
e|----------|
B|---5--4---|
G|--------6-|
D|--6-------|
A|----------|
E|----------|


[Solo 1]

e|----------------------------------------------------|-----|
B|------------------------------------------------4---|-*4--|
G|--4p3--4/6--4-3----------*6~-\4-3-6-4-3-------4---6-|-----|
D|----------------6-4-6-6-----------------6-4-6-------|-----|
A|----------------------------------------------------|-----|
E|----------------------------------------------------|-----|


[Verse 2]

 (G#m)                    E       F#
 Through these fields of destruction
e|---------------|
B|--9p7-7--------|
G|--6---6---6----|
D|----------6h8--|
A|---------------|
E|---------------|

                B  Bsus4 B
 Baptisms of fire
e|-----------|
B|--*4-*5-*7-|
G|-----------|
D|-----------|
A|-----------|
E|-----------|

                        G#  D#m
 I've witnessed your suffering
e|-------------|
B|--7p6----6---|
G|-------8-----|
D|-----------8-|
A|-------------|
E|-------------|

                       E    F#sus   F#
 As the battle raged higher
e|-------|
B|-------|
G|----*6-|
D|--*9---|
A|-------|
E|-------|

                      G#m      D#m
 And though they did hurt me so bad
e|---------------|
B|--9p7--6h7-----|
G|-------------8-|
D|---------------|
A|---------------|
E|---------------|

                  E      F#sus   F#
 In the fear and alarm
e|--------------|
B|--------------|
G|--*4-*6-*4-*3-|
D|--------------|
A|--------------|
E|--------------|

               G#m         E         F#sus   F#
 You did not desert me, my brothers in arms
e|-------------------|
B|--5-4------5---4---|
G|------6-4--------6-|
D|----------6--------|
A|-------------------|
E|-------------------|


[Solo 2]

e|---------------------------------------------|-----|
B|-7-7b9-7-4-------------------------------4---|-*4--|
G|-----------4\3-------3-4/6--4-3-3------4---6-|-----|
D|----------------6-6---------------6-6--------|-----|
A|---------------------------------------------|-----|
E|---------------------------------------------|-----|


[Verse 3]

(G#m)        F#           G#m             F#
There's so many different worlds

e|-----|                      |--------------|
B|--7\-|                      |----------4---|
G|--6\-|                      |------3-4---6-|
D|-----|                      |----6---------|
A|-----|                      |--6-----------|
E|-----|                      |--------------|

    B               E          F#
 So many different suns
e|---------------|
B|---------------|
G|--3-4-3---4/6--|
D|--------6------|
A|---------------|
E|---------------|

                       G#m    B
 And we have just one world
e|----------------|
B|--5p4-------4---|
G|-------6p4----6-|
D|----------------|
A|----------------|
E|----------------|

                           E   
 But we live in different ones
e|----------|
B|----------|
G|----------|
D|--------2-|
A|---x\---2-|
E|---x\---0-|


[Solo 3]

e|------------------------------------4-6-4-------|
B|------4--7b9--p5--7b9--7-4---4h7b9--------7p5---|
G|----4----------------------4--------------------|
D|--6---------------------------------------------|
A|------------------------------------------------|
E|------------------------------------------------|

e|----------------------------------------------------|------------|
B|--4h7p4h7p4-7b9-7--4----------------------------4---|-*4---------|
G|---------------------4-3---------4/6--r6b8--4-4---6-|---*6-*4-*3-|
D|-------------------------6-4-6-6--------------------|------------|
A|----------------------------------------------------|------------|
E|----------------------------------------------------|------------|


 [Verse 4]
                       E          F#
 Now the sun's gone to hell and
e|--------|
B|--------|
G|-6-6----|
D|-6-6h8--|
A|--------|
E|--------|

                     B   Bsus B
 The moon's riding high
e|--------|
B|--*5-*7-|
G|--------|
D|--------|
A|--------|
E|--------|

                   G#m    D#m
 Let me bid you farewell
e|-------------------|
B|--9b119b11--7h9p7--|
G|-------------------|
D|-------------------|
A|-------------------|
E|-------------------|

                   E
 Every man has to die
e|-----|---------------------|
B|--*4-|---------------------|
G|-----|---------6-8/9-8-4-6-|
D|-----|-------6-------------|
A|-----|--6/7----------------|
E|-----|---------------------|

                         G#m D#m                                   E      F#sus
 But it's written in the starlight;        And every line in your palm
e|------------------------------------|
B|--9b11--9-7-9-9b11--9b11--/11p9---7-|
G|------------------------------------|
D|------------------------------------|
A|------------------------------------|
E|------------------------------------|

        F#            G#m
We are fools to make war

          E          F#
 On our brothers in arms
e|------------------|
B|-5-4------5---4---|
G|----------------6-|
D|---------6--------|
A|------------------|
E|------------------|


[Solo 4]

e|------------------------4------4-6-4---4-----4------------|
B|--7b9--7-4------------4---7b9--------7---7-----7-5p4------|
G|-----------4\3----------------------------------------6-6-|
D|----------------6-6---------------------------------------|
A|----------------------------------------------------------|
E|----------------------------------------------------------|

e|--------------------------------|
B|--7----7--7-7-7-7----------h5---|
G|--6b8--6--4-6-6-4--4-----4------|
D|-------------------4h6---6------|
A|--------------------------------|
E|--------------------------------|

e|--------------------------------------|
B|--------------------------------------|
G|--4/6*b\4--\6-4---4----6-6h8p6---6\4--|
D|----------------6------6---------6\4--|
A|--------------------------------------|
E|--------------------------------------|


[Outro]

e|-----------------------------------14-----------------12-----11-12-11----11-------|
B|---------11-12b14--12-11----12b14-----14b16--12----12----14-----------14----12h14-|
G|------13-----------------13---------------------13--------------------------------|
D|--13------------------------------------------------------------------------------|
A|----------------------------------------------------------------------------------|
E|----------------------------------------------------------------------------------|
Fade out
Suggest correction
comments
print report bad tab
6 comments total. Showing first comments.
+3 reply
ee_guy 10 Jul 15, 2015 01:42 PM

Thanks for taking the time to put this together. I started watching Justin's video and immediately wanted to find the tabs. Yours was the only one that matched. Also it sounds the best to me compared to the rest on here.

0 reply
wacuafek 61 Apr 23, 2016 12:36 PM

Thank you for your time of making this. I appiciate it.

0 reply
gitaar aap 10 May 02, 2016 05:02 AM

love this song and tab

guest
You may want to rate the tab now too:
select rating
Wanna post a correction for this tab? Suggest correction