Oops, an error
Loading. Please wait.

Fade To Black Tab

5,317 views 12 this week
no commentswrite comment
1 2 3 4 5
accurate
x 5
add to favorites
launch autoscroll
font size
0
reset
how to read this tab
guitar tuner
Tab Pro tools
  • play this tab
  • loop segment
  • change instrument
  • show fretboard
  • metronome
×
Best way to learn
"Fade To Black"
Autoscroll
slow
fast
+/-
esc
set tempo
stop
Difficulty
intermediate
Artist: Dire Straits
Album: On Every Street
Title: Fade To Black
Transcriped by: Gökay Ersoy
E-mail: gokay96@hotmail.com

Please send your comments and corrections;

intro:
---------------------------------------------------------------------------|
-8h10p8-----------10--------10--------10p8-----8---------------------------|
--------10-10-h12-------12b----10-12-------10b----/10--9-7-----------------|
--------------------12-------------------------------------10h12-10h12-----|
-----------------------------------------------------------------------10--|
---------------------------------------------------------------------------|
0:16
---------------------------------------------------------------------------|
-10-11------------------------10h11p10-------------------------------------|
-------12--10-12-12-----10h12----------12-10h12p10----10-12h14p12----------|
---------------------12----------------------------12----------------------|
---------------------------------------------------------------------------|
---------------------------------------------------------------------------|
0:21
---------------------------------------------------------------------------|
---------------------------------------------------------------------------|
-10---10h12--/12b-10---------------------------------------------------0h2-|
---12----------------12b-10------------------------------------------------|
-----------------------------10h12p10--8h10-8-10--8h10-8h10-8-5--0-3-0-----|
---------------------------------------------------------------------------|

first solo:
1:28
-----10-/10--8-10-----------------------------------------------------------|
-/10--------------10-10b------------10---------------10b-h13----------------|
--------------------------12-10-h12-----12p10-10h12-------------------------|
----------------------------------------------------------------------------|
----------------------------------------------------------------------------|
----------------------------------------------------------------------------|
1:39
-8h10b----------------------------------------------------------------------|
--------/10-9-8------------------------10-11p10-8---------------------------|
----------------10----10---------------------------10h12b-------------------|
-------------------12----12--10h12-12---------------------------------------|
----------------------------------------------------------------------------|
----------------------------------------------------------------------------|
1:49
----------------------------------------------------------------------------|
----------------------------------------------------------------------------|
-10h12p10----10h12p10----10h12--10h12-10h12-10-(9)--------------------------|
----------12----------12----------------------------------------------------|
----------------------------------------------------------------------------|
----------------------------------------------------------------------------|
1:53
-9-12-10--------------------------------------------------------------------|
---------10----------10-13-11-10--------------------------------------------|
------------10----10-------------10-----10-10/17--15--14--------------------|
---------------12--------------------12-------------------------------------|
----------------------------------------------------------------------------|
----------------------------------------------------------------------------|

last solo:
2:57
----13-12-----12-----------------------9b-----------------------------------|
-10--------15b---/15--13-15-13-------10-------------------------------------|
-------------------------------14--12-------12-10-------------9-12----------|
--------------------------------------------------12-10----10---------------|
--------------------------------------------------------12------------------|
----------------------------------------------------------------------------|
3:05
----------------------------------------------------------------------------|
--------------------------------------------13-10---10--------10------------|
-10-12-10-9-10--------------------10h12-/15-------12--12p10-12--12p10-------|
---------------10-12-----10h12p10-------------------------------------------|
----------------------12----------------------------------------------------|
----------------------------------------------------------------------------|
3:10
----------------------------------------------------------------------------|
---10---------10--------10--10-------/10-10b-11-8-----------10--------------|
-12--12p10-12---12p10-12--12--12--------------------/12-12b----10-----------|
--------------------------------12------------------------------------------|
----------------------------------------------------------------------------|
----------------------------------------------------------------------------|

3:20
----------------------------------------------------------------------------|
----------------------------------------------------------------------------|
-9--10-9--------------------------------------------------------------------|
----------12----------------------------------------------------------------|
--------------12-11-10-8--8h10p8-10--8h10--10-8-----------------------------|
------------------------------------------------10--------------------------|
3:30
--------------------------------------------12------------------------------|
----------------------10-12-13p12--------10---------------------------------|
--------------------9-----------------10------------------------------------|
--------------10-12----------------12---------------------------------------|
-----8h10-/12---------------------------------------------------------------|
--10------------------------------------------------------------------------|


h:hammer on
p:pull off
/:slide
b:bend
3:30:time
comments
print report bad tab
I want to post or [tab]
guest
You may want to rate the tab now too:
select rating
Please do not post tabs as comments. Select "correction" instead!