Oops, an error
Loading. Please wait.

Industrial Disease Tab

4,846 views 1 this week
4 commentsread comments
1 2 3 4 5
x 6
add to favorites
launch autoscroll
font size
0
reset
how to read this tab
guitar tuner
Autoscroll
slow
fast
+/-
esc
set tempo
stop
Help us to improve Ultimate-Guitar.com Take our survey!
×
Difficulty
novice
|------------------------------------------------------------------------------------------|
|------------------------------------------------------------------------------------------|
|------------------------------------------------------------------------------------------|
|-7--------7-7-77-77-7/0---0-0----5-777----7-7-7-5-5-55----7-5-5777---757555/12-5-5-5-5777-|
|--0---------------------------------------------------------------------------------------|
|----455-----------------------------------------------------------------------------------|
Suggest correction
comments
print report bad tab
4 comments total. Showing first comments.
0 reply
mrvegas74 30 Jun 27, 2008 03:37 PM

what is this?? what a mess

0 reply
davey1272250 93 Jan 04, 2009 03:11 AM

Try this instead...

e|------------------------------------
B|------------------------------------
G|--2---------------------------------
D|--2---2-------------2---------------
A|------0---------0---0---------------
E|----------1s3-----------------------

Using upward fingerpicking and muting the strings after each pluck - just like the song?

0 reply
Mister_Sandmann 10 Mar 31, 2012 08:47 PM

this is horrible

guest
You may want to rate the tab now too:
select rating
Wanna post a correction for this tab? Suggest correction