Oops, an error
Loading. Please wait.

Money For Nothing Tab

version 2
version 2

Whole song

144,884 views 138 this week
8 commentsread comments
1 2 3 4 5
accurate
x 20
add to favorites
launch autoscroll
font size
0
reset
how to read this tab
guitar tuner
Autoscroll
slow
fast
+/-
esc
set tempo
stop
Help us to improve Ultimate-Guitar.com Take our survey!
×
MONEY FOR NOTHING
by DIRE STRAITS


e|+-----------------------------------------------------------------------------|
B|-----------6------------------------------------------------------------------|
G|--7-7-5--7-5-7-5-3-3-0----7-7--3>s>5---0--3>s>5 5 5>s>3-0---------------------|
D|--5-5-5--5---5-5-5-5-5----5-5--3>s>5---0--3>s>5 5 5>s>3-0---------------------|
A|------------------------------------------------------------------------------|
E|+-----------------------------------------------------------------------------|

e|+-----------------------------------------------------------------------------|
B|-------------8----------------------------------------------------------------|
G|--7-7-5--5-7-7-7-5----0--7-7-3>s>5-0------------------------------------------|
D|--5-5-5-8---------8-5-0--5-5-3>s>5-0--3>s>5-5---------------------------------|
A|------------------------------------------------------------------------------|
E|+-----------------------------------------------------------------------------|

An alternate ending used in concert down here in oz, ~ 1987 towards the end of
the song.

   --> play as above until-v
e|+-----------------------------------------------------------------------------|
B|------------------------------------------------------------------------------|
G|-------------------------3-2--------------------------------------------------|
D|-----------------------------3>s>5-5-5>p>3------------------------------------|
A|-------------------------------------------3>h>5-3>h>5------------------------|
E|+-------------------------------------------------------6-5-3-----------------|



************************************

| h Hammer on
| p Pull off
| s Slide

************************************
Suggest correction
comments
print report bad tab
8 comments total. Showing first comments.
0 reply
SummerRae 0 wrote on April 29 2002, 12:00 am

this song rocks

0 reply
Jinx 1,750 wrote on October 22 2002, 12:00 am

absolutely perfect, nice job

0 reply
kingsley 10 wrote on April 17 2004, 12:00 am

best tab ever for this band

guest
You may want to rate the tab now too:
select rating
Wanna post a correction for this tab? Suggest correction