Oops, an error
Loading. Please wait.

Romeo And Juliet Tab

version 7
113,194 views 630 this week
12 commentsread comments
1 2 3 4 5
excellent!
x 29
add to favorites
launch autoscroll
font size
0
reset
how to read this tab
guitar tuner
Tab Pro tools
  • play this tab
  • loop segment
  • change instrument
  • show fretboard
  • metronome
×
Best way to learn
"Romeo And Juliet"
Autoscroll
slow
fast
+/-
esc
set tempo
stop
Contributor
Capo
3rd fret
Artist: Dire Straits
Composer / Writer : Mark Knopfler
Album: Making Movies
Song: Romeo & Juliet

heres tabs for the famous song of Dier Straits Romeo & Juilet(exact tab!!!!!)for
the struming listen to the song and you'll find it :)

tuning:         capo: 3rd fr
d------|
b------|
g------|
D------|
G------|
D------|

chords:

f:d---4---    c:d---2---   Bb:d---0---   Dm:d---0---|
  b---3---      b---2---      b---0---      b---0---|
  g---2---      g---2---      g---0---      g---1---|
  D---4---      D---2---      D---0---      D---1---|
  G---2---      G---2---      G---0---      G---1---|
  D---x---      D---x---      D---x---      D---x---|

c add 9:d---2---   f/A:d---x---|
        b---2---       b---3---|
        g---4---       g---2---|
        D---2---       D---0---|
        G---2---       G---x---|
        D---x---       D---4---|


intro:
    f                  c        Bb
d---4---------4--------2-----2---0-------0-------------2---|
b---------3---------3-----------------0--------0--2--3-----|
g--------2---------2--------2--------0--------0------------|
D-------4---------4--------2--------0--------0-------------|
G-------------2--------2---------0-------0-----------------|
D---0------------------------------------------------------|
    f                          c   Bb          Bb    c
d---4---------4------------4---2---0-------0----0----2-----|
b---------3---------3-----3-----2-------0-------0----2-----|
g--------2---------2-----2-------------0--------0----2-----|
D-------4---------4-----4-------------0---------0----2-----|
G-------------2--------2-----------0-------0----0----2-----|
D---0-----------------0------------------------------------|

    f                  c        Bb                 f
d---4---------4--------2-----2---0-------0---------4---4----|
b---------3---------3-----------------0--------0------------|
g--------2---------2--------2--------0--------0-------------|
D-------4---------4--------2--------0--------0--------------|
G-------------2--------2---------0-------0---------2--------|
D---0-------------------------------------------------------|

 f                          c   Bb          Bb    c
d---4---------4------------4---2---0-------0----0----2-----|
b---------3---------3-----3-----2-------0-------0----2-----|
g--------2---------2-----2-------------0--------0----2-----|
D-------4---------4-----4-------------0---------0----2-----|
G-------------2--------2-----------0-------0----0----2-----|
D---0-----------------0------------------------------------|

verse:
    f   Dm  c   f   Dm  Bb           c   Bb  f       Bb      c
d---4---0---2---4---0---0------------2---0---4-----------0---2---|
b---3---0---2---3---0---0--------3---2---0---3-------0---0---2---|
g---2---1---2---2---1---0---2-/-4----2---0---2------2----0---2---|     x2
D---4---1---2---4---1---0------------2---0---4-----4-----0---2---|
G---2---1---2---2---1---0------------2---0---2----2------0---2---|
D------------------------------------------------0---------------|
    f   c   Dm  Bb  f   c   Dm  Bb  c   f   c   Bb  f/A  c add 9
d---4---2---0---0---4---2---0---0---2---4---2---0---x----2------|
b---3---2---0---0---3---2---0---0---2---3---2---0---3----2------|
g---2---2---1---0---2---2---1---0---2---2---2---0---2----4------|
D---4---2---1---0---4---2---1---0---2---4---2---0---0----2------|
G---3---2---1---0---2---2---1---0---2---2---2---0---x----2------|
D---------------------------------------------------4-----------|
    Dm  c   f   c   f            c    Bb
d---0---2---4---2---4--------4---2----0---------0------------2---|
b---0---2---3---2---3-------3-----2---------0---------0---2-3----|
g---1---2---2---2---2------2---------------0---------0-----------|
D---1---2---4---2---4-----4---------------0---------0------------|
G---1---2---2---2---2----2------------0---------0----------------|
D-----------------------0----------------------------------------|
    f                 c         Bb                      c
d---4-------4---------2-----2---0---------0---------0---2---|
b-------3---------3-------------------0---------0---0---2---|
g------2---------2---------2---------0---------0----0---2---|
D-----4---------4---------2---------0---------0-----0---2---|
G-----------2---------2---------0---------0---------0---2---|
D---0-------------------------------------------------------|


hope you like it!!!=]

:D    Jordan(L)!;)
comments
print report bad tab
12 comments total. Showing first comments.
0 reply
datrandomguy wrote on December 29 2009, 10:12 am

perfect tab

0 reply
andtz wrote on June 28 2011, 02:07 am

mark's version!!...

0 reply
WiscGaloot wrote on July 27 2011, 04:51 pm

Nicely done, thanks for the great tab!

I want to post or [tab]
guest
You may want to rate the tab now too:
select rating
Please do not post tabs as comments. Select "correction" instead!