Oops, an error
Loading. Please wait.

Romeo And Juliet Tab

version 7
version 7

Whole song

123,673 views 555 this week
12 commentsread comments
1 2 3 4 5
excellent!
x 31
add to favorites
launch autoscroll
font size
0
reset
how to read this tab
guitar tuner
Autoscroll
slow
fast
+/-
esc
set tempo
stop
Help us to improve Ultimate-Guitar.com Take our survey!
×
Author
Tuning
Capo
D G D G B D
3rd fret
Artist: Dire Straits
Composer / Writer : Mark Knopfler
Album: Making Movies
Song: Romeo & Juliet

heres tabs for the famous song of Dier Straits Romeo & Juilet(exact tab!!!!!)for
the struming listen to the song and you'll find it :)

tuning: DGDGBD
capo: 3rd fr

chords:

F:d---4---    C:d---2---   Bb:d---0---   Dm:d---0---|
  b---3---      b---2---      b---0---      b---0---|
  g---2---      g---2---      g---0---      g---1---|
  D---4---      D---2---      D---0---      D---1---|
  G---2---      G---2---      G---0---      G---1---|
  D---x---      D---x---      D---x---      D---x---|

Cadd9:d---2---   F/A:d---x---|
      b---2---       b---3---|
      g---4---       g---2---|
      D---2---       D---0---|
      G---2---       G---x---|
      D---x---       D---4---|


[Intro]

    F                  C        Bb
d---4---------4--------2-----2---0-------0-------------2---|
b---------3---------3-----------------0--------0--2--3-----|
g--------2---------2--------2--------0--------0------------|
D-------4---------4--------2--------0--------0-------------|
G-------------2--------2---------0-------0-----------------|
D---0------------------------------------------------------|
    F                          C   Bb          Bb    C
d---4---------4------------4---2---0-------0----0----2-----|
b---------3---------3-----3-----2-------0-------0----2-----|
g--------2---------2-----2-------------0--------0----2-----|
D-------4---------4-----4-------------0---------0----2-----|
G-------------2--------2-----------0-------0----0----2-----|
D---0-----------------0------------------------------------|

    F                  C        Bb                 F
d---4---------4--------2-----2---0-------0---------4---4----|
b---------3---------3-----------------0--------0------------|
g--------2---------2--------2--------0--------0-------------|
D-------4---------4--------2--------0--------0--------------|
G-------------2--------2---------0-------0---------2--------|
D---0-------------------------------------------------------|

 F                          C   Bb          Bb    C
d---4---------4------------4---2---0-------0----0----2-----|
b---------3---------3-----3-----2-------0-------0----2-----|
g--------2---------2-----2-------------0--------0----2-----|
D-------4---------4-----4-------------0---------0----2-----|
G-------------2--------2-----------0-------0----0----2-----|
D---0-----------------0------------------------------------|


[Verse]

    F   Dm  C   F   Dm  Bb           C   Bb  F       Bb      C
d---4---0---2---4---0---0------------2---0---4-----------0---2---|
b---3---0---2---3---0---0--------3---2---0---3-------0---0---2---|
g---2---1---2---2---1---0---2-/-4----2---0---2------2----0---2---|     x2
D---4---1---2---4---1---0------------2---0---4-----4-----0---2---|
G---2---1---2---2---1---0------------2---0---2----2------0---2---|
D------------------------------------------------0---------------|

    F   C   Dm  Bb  F   C   Dm  Bb  C   F   C   Bb  F/A  Cadd9
d---4---2---0---0---4---2---0---0---2---4---2---0---x----2------|
b---3---2---0---0---3---2---0---0---2---3---2---0---3----2------|
g---2---2---1---0---2---2---1---0---2---2---2---0---2----4------|
D---4---2---1---0---4---2---1---0---2---4---2---0---0----2------|
G---3---2---1---0---2---2---1---0---2---2---2---0---x----2------|
D---------------------------------------------------4-----------|

    Dm  C   F   C   F            C    Bb
d---0---2---4---2---4--------4---2----0---------0------------2---|
b---0---2---3---2---3-------3-----2---------0---------0---2-3----|
g---1---2---2---2---2------2---------------0---------0-----------|
D---1---2---4---2---4-----4---------------0---------0------------|
G---1---2---2---2---2----2------------0---------0----------------|
D-----------------------0----------------------------------------|

    F                 C         Bb                      C
d---4-------4---------2-----2---0---------0---------0---2---|
b-------3---------3-------------------0---------0---0---2---|
g------2---------2---------2---------0---------0----0---2---|
D-----4---------4---------2---------0---------0-----0---2---|
G-----------2---------2---------0---------0---------0---2---|
D---0-------------------------------------------------------|


hope you like it!!!=]

:D    Jordan(L)!;)



************************************

| x  Dead note
| /  Slide up

************************************
Suggest correction
comments
print report bad tab
12 comments total. Showing first comments.
0 reply
datrandomguy 73 wrote on December 29 2009, 10:12 am

perfect tab

0 reply
andtz 10 wrote on June 28 2011, 02:07 am

mark's version!!...

0 reply
WiscGaloot 10 wrote on July 27 2011, 04:51 pm

Nicely done, thanks for the great tab!

guest
You may want to rate the tab now too:
select rating
Please do not post tabs as comments. Select "correction" instead!