Oops, an error
Loading. Please wait.

So Far Away From Me Tab

version 1
version 1

Whole song

Interactive

64,990 views 45 this week
6 commentsread comments
1 2 3 4 5
x 6
add to favorites
×
Save as Personal and add changes to this tab that will be seen only by you. Learn more ›
×
You can save this tab as Personal to edit and correct it or add notes. All changes will be seen only by you. Learn more »
save as personal
new!
launch autoscroll
font size
0
reset
how to read this tab
guitar tuner
Autoscroll
slow
fast
+/-
esc
set tempo
stop
[Intro]
   Bm       A        E
e|----------0-0-0-0-------------|
B|----------2-2-2-2-------------|
G|-4-4-4-4--2-2-2-2--1-1-1-1----|
D|-4-4-4-4--2-2-2-2--2-2-2-2----|
A|-2-2-2-2--0-0-0-0--2-2-2-2----|
E|-------------------0-0-0-0----|

[Verse 1]
E                       Bm
here i am again in this mean old town 
Bm                        E
and your so far away from me
E                              Bm
And where are you when the sun goes down
Bm                      E
You're so far away from me

[riff 2]
e|---------------|
B|-2-7-9-5-------|
G|-2s7-7-4-------|
D|---------------|
A|---------------|
E|---------------|

[Chorus]
C#
So far away from me
Bm                E      A
So far I just can't see
C#
So far away from me
Bm           A     
You're so far away from me
Em

[riff 1]  
(pick lightly)            
e|-------------------------------|
B|-2-7-9-7--9-5------------------|
G|-2s7-7-6--6-4------------------| (x2)
D|------------------2h4h2h4-2----|
A|------------------0------------|
E|-------------------------------|

[Verse 2]
same chords
I'm tired of being in love and being all alone
When you're so far away from me
I'm tired of making out on the telephone
And you're so far away from me

[riff 2]
e|---------------|
B|-2-7-9-5-------|
G|-2s7-7-4-------|
D|---------------|
A|---------------|
E|---------------|

same chords
So far away from me
So far I just can't see

[riff 2]
e|---------------|
B|-2-7-9-5-------|
G|-2s7-7-4-------|
D|---------------|
A|---------------|
E|---------------|

[Chorus]
So far away from me
You're so far away from me

[riff 1]  
(pick lightly)            
e|-------------------------------|
B|-2-7-9-7--9-5------------------|
G|-2s7-7-6--6-4------------------| (x2)
D|------------------2h4h2h4-2----|
A|------------------0------------|
E|-------------------------------|

[Verse 3]
same chords
I get so tired when I have to explain
When you're so far away from me
See you been in the sun and I've been in the rain
And you're so far away from me

[riff 2]
e|---------------|
B|-2-7-9-5-------|
G|-2s7-7-4-------|
D|---------------|
A|---------------|
E|---------------|

[Chorus]
same chords
So far away from me
So far I just can't see

[riff 2]
e|---------------|
B|-2-7-9-5-------|
G|-2s7-7-4-------|
D|---------------|
A|---------------|
E|---------------|

So far away from me
You're so far away from me



************************************

| h  Hammer-on
| s  

************************************
Suggest correction
comments
print report bad tab
6 comments total. Showing first comments.
-1 reply
Phreakdawg 83 Dec 25, 2005 03:08 PM

B, not Bmin.

+2 reply
matt-fender 10 Mar 26, 2008 03:40 PM

pretty good tab, only one correction , its Mark Knopfler :D

+2 reply
matt-fender 10 Mar 26, 2008 03:40 PM

pretty good tab, only one correction , its Mark Knopfler :D

guest
You may want to rate the tab now too:
select rating
Wanna post a correction for this tab? Suggest correction