Oops, an error
Loading. Please wait.
We have an official Sultans Of Swing tab made by UG professional guitarists. Check out the tab »
×
110,684 views 189 this week
3 commentsread comments
1 2 3 4 5
x 24
add to favorites
×
Save as Personal and add changes to this tab that will be seen only by you. Learn more ›
×
You can save this tab as Personal to edit and correct it or add notes. All changes will be seen only by you. Learn more »
launch autoscroll
font size
0
reset
guitar tuner
backing track
0:00
0:00
edit
Autoscroll
slow
fast
+/-
esc
set tempo
stop
Author
Unregistered
This is how I play it, sounds quite fine to me. Don't mind the vertical lines, they're 
to keep things clear.

G|----------------------|
D|----------------------|
A|-5-5-5-5-5-5-3-0-3-0--|
E|----------------------| (x4)

G|---------------------------------|
D|---------------------------------|
A|5-5-5-5-3-3-1-1-0-0-0-0-0-0-0-0--|
E|---------------------------------| (x2)

G|-------|------|------|------|-----|-----|------|--------------|
D|-3-3--3|-3----|------|------|-----|-----|------|--------------|
A|-----1-|---1-3|-3-1-3|-3-3-1|-1--1|-1--5|-5-1-5|1-1-1/3-3-3-3-|
E|-------|------|------|------|---3-|---3-|------|--------------|

G|---------------------------------|
D|---------------------------------|
A|5-5-5-5-3-3-1-1-0-0-0-0-0-0-0-0--|
E|---------------------------------| (x2)

G|-------|-----|------|------|-----|-----|------|-------------|----------------|
D|-3-3---|-----|------|------|-----|-----|------|-------------|----------------|
A|-----1-|---13|-3-1-3|-3-3-1|-1--1|-1--5|-5-1-5|1-1-1/3-3-3-3|1-1-1/3-3-3-3-3-|
E|------1|-1---|------|------|---3-|---3-|------|-------------|----------------|

G|--------------------------|
D|--------------------------|
A|5-5-3-1-1----1-3-3-1-3-3--|
E|----------3-3-------------| (x2)

G|-------------------------------------|
D|-------------------------------------|
A|5-5-5-5-3-3-1-1-0-0-0-0-0-0-0-0-0-0--|
E|-------------------------------------| (x2)

G|-------|------|------|------|-----|-----|------|----------------|
D|-3-3---|------|------|------|-----|-----|------|----------------|
A|-----1-|---1-3|-3-1-3|-3-3-1|-1--1|-1--5|-5-1-5|1-1-1/3-3-3-3-3-|
E|------1|-1----|------|------|---3-|---3-|------|----------------|

G|-------------------------------------|
D|-------------------------------------|
A|5-5-5-5-3-3-1-1-0-0-0-0-0-0-0-0-0-0--|
E|-------------------------------------| (x2)


G|-------|------|------|------|-----|-----|------|-------------|----------------|
D|-3-3---|------|------|------|-----|-----|------|-------------|----------------|
A|-----1-|---1-3|-3-1-3|-3-3-1|-1--1|-1--5|-5-1-5|1-1-1/3-3-3-3|1-1-1/3-3-3-3-3-|
E|------1|-1----|------|------|---3-|---3-|------|-------------|----------------|

G|---------------------------|
D|---------------------------|
A|5-5-3-1-1-----1-3-3-1-3-3--|
E|----------3-3--------------| (x2)

G|-------------------------------------|
D|-------------------------------------|
A|5-5-5-5-3-3-1-1-0-0-0-0-0-0-0-0-0-0--|
E|-------------------------------------| (x2)

G|-------|-----|------|------|-----|-----|------|-------------|----------------|
D|-3-3---|-----|------|------|-----|-----|------|-------------|----------------|
A|-----1-|---13|-3-1-3|-3-3-1|-1--1|-1--5|-5-1-5|1-1-1/3-3-3-3|1-1-1/3-3-3-3-3-|
E|------1|-1---|------|------|---3-|---3-|------|-------------|----------------|

G|---------------------------|
D|---------------------------|
A|5-5-3-1-1-----1-3-3-1-3-3--|
E|----------3-3--------------| (x2)

G|-------------------------------------|
D|-------------------------------------|
A|5-5-5-5-3-3-1-1-0-0-0-0-0-0-0-0-0-0--|
E|-------------------------------------| (x2)

G|-------|-----|------|------|-----|-----|------|-------------|----------------|
D|-3-3---|-----|------|------|-----|-----|------|-------------|----------------|
A|-----1-|---13|-3-1-3|-3-3-1|-1--1|-1--5|-5-1-5|1-1-1/3-3-3-3|1-1-1/3-3-3-3-3-|
E|------1|-1---|------|------|---3-|---3-|------|-------------|----------------|

G|---------------------------|
D|---------------------------|
A|5-5-3-1-1-----1-3-3-1-3-3--|
E|----------3-3--------------| (x2)

G|-------------------------------------|
D|-------------------------------------|
A|5-5-5-5-3-3-1-1-0-0-0-0-0-0-0-0-0-0--|
E|-------------------------------------| (x2)

G|-------|-----|------|------|-----|-----|------|-------------|----------------|
D|-3-3---|-----|------|------|-----|-----|------|-------------|----------------|
A|-----1-|---13|-3-1-3|-3-3-1|-1--1|-1--5|-5-1-5|1-1-1/3-3-3-3|1-1-1/3-3-3-3-3-|
E|------1|-1---|------|------|---3-|---3-|------|-------------|----------------|

G|---------------------------|
D|---------------------------|
A|5-5-3-1-1-----1-3-3-1-3-3--|
E|----------3-3--------------| (x4)

G|----------------------------|
D|---7-5-3--------------------|
A|5-5-----1-1-----1-3-3-1-3-3-|
E|------------3-3-------------| until the end


************************************

| /  Slide up

************************************
Suggest correction
Creating personal tab
Creating personal tab
You can edit any tab online and save it as your Personal.

You can edit, replace or remove any tab part or add personal notes – all changes will be seen only by you.

Personal tabs can be accessed anytime from any device, even offline.
Learn more »
comments
print report bad tab
3 comments total.
0 reply
FLEA II 10 Apr 09, 2006 02:04 PM

close, but in the begginning, the first notes of all of ur doubles are actually muted, theyr not full notes. almost, keep trying.

0 reply
Agility22 10 May 25, 2008 05:20 AM

not bad i say, i mmyself not good tabbing and shit but, i think the last zero in the intro isint supposed to be there....at least that is what my ear hears it XP

+1 reply
maxpowweer 639 Aug 01, 2014 05:46 PM

G --------------------------|
D ----7-5-------------------|
A 5-5-----8-------13-3-13-3-|
E ----------6--33-----------| until the end

Just as a suggestion, this is how I play it. just a bit easier!

5/5 otherwise *****

guest
Wanna post a correction for this tab? Suggest correction