Oops, an error
Loading. Please wait.
We have an official Sultans Of Swing tab made by UG professional guitarists. Check out the tab »
×
22,739 views 45 this week
1 commentread comment
1 2 3 4 5
x 21
add to favorites
×
Save as Personal and add changes to this tab that will be seen only by you. Learn more ›
×
You can save this tab as Personal to edit and correct it or add notes. All changes will be seen only by you. Learn more »
launch autoscroll
font size
0
reset
guitar tuner
backing track
0:00
0:00
edit
Autoscroll
slow
fast
+/-
esc
set tempo
stop
Author
Unregistered
Love this song! Once you get the hang of it it's great fun. Order of the parts is:

Intro
Pre-verse
Verse Type 1
Pre-verse
Verse Type 2
Chorus
Pre-verse
Verse Type 2
Pre-verse
Verse Type 2
Chorus
Pre-verse
Verse Type 2
Chorus
Pre-verse
Verse Type 2
Chorus
Pre-verse
Verse Type 1
Chorus
Outro

On both verse phrases, the last part:

G|--------------|
D|--------------|
A|-1-1-13-33-33-|
E---------------|

is sometimes repeated once, but it's pretty obvious to tell when this is. Enjoy!


[Intro:]
G|----------------|
D|----------------|
A|-5-55-55--53030-|
E|----------------|x4


[Pre-verse:]
G|------------------------------|
D|------------------------------|
A|-5-55-53-31-10-00-00-00-0-----|
E|------------------------------|x2


[Verse Type 1:]
G|-------------------------------------------------------------------------|
D|-3-3---0-3-3--0----------------------------------------------------------|
A|------3--------0--3--3---0--3-3----3--1-1-----1-1--305-55-305--1-1-13-33-|
E|------------------------3-----------3------13----------------------------|

G|-----------|
D|-----------|
A|-33-3010---|
E|-----------|


[Verse Type 2:]
G|-------------------------------------------------------------------------|
D|-3-3---0-----------------------------------------------------------------|
A|--------3------0-3-3---1-3-3----30-1-1-----0-1-1-305-55-305--1-1-13-33---|
E|---------1-1------------3-----------------1------------------------------|

G|-----------|
D|-----------|
A|-33-3010---|
E|-----------|


[Chorus:]
G|---------------------------------------|
D|---------------------------------------|
A|-5--5531---1---1---3-3---1---3-3----03-|
E|------------33--3---------3------------|x2


[Outro:]

G|------------------------------------|
D|------------------------------------|
A|-5-55-5-1-1----0-3-3--1--3-3--03----|
E|--------------3--------3------------|

G|---------------------------------------|
D|---------------------------------------|
A|-5--5531---1---1---3-3---1---3-3----03-|
E|------------33--3---------3------------|x2

G|-----2-0---------------------------|
D|------3-0--0---0-------------------|
A|-5-5--------11--1-3-3--1--3-3------|
E|------------------------3----------|x to finish

            
            
Suggest correction
Creating personal tab
Creating personal tab
You can edit any tab online and save it as your Personal.

You can edit, replace or remove any tab part or add personal notes – all changes will be seen only by you.

Personal tabs can be accessed anytime from any device, even offline.
Learn more »
comments
print report bad tab
1 comment total.
0 reply
dolson128 2,238 Aug 12, 2014 05:03 PM

Perfect tab! Very fun bass.

guest
Wanna post a correction for this tab? Suggest correction