Oops, an error
Loading. Please wait.

Twisting By The Pool Tab

version 1
version 1

Whole song

Interactive

5,341 views 3 this week
4 commentsread comments
1 2 3 4 5
please rate
add to favorites
launch autoscroll
font size
0
reset
how to read this tab
guitar tuner
Tab Pro tools
  • play this tab
  • loop segment
  • change instrument
  • show fretboard
  • metronome
×
Best way to learn
"Twisting By The Pool"
Autoscroll
slow
fast
+/-
esc
set tempo
stop
Contributor
Difficulty
intermediate
---------------------------------------------------------
     TWISTING BY THE POOL       DIRE STRAITS
---------------------------------------------------------

By davey1272250
email fletcherdk@netcall.com.au



Intro lick - jonny B goode style

e|------0-0-0-0-0-0-0-0-0---------------|
B|-----\8-8-7-7-5-5-7-7-8---------------|
G|--------------------------------------|
D|--------------------------------------|
A|--------------------------------------|
E|--------------------------------------|

e|------0-0-0-0-0-0------/8-8-7-5-------|
B|-----/8-8-7-7-5-5------/8-------8-5---|
G|--------------------------------------|
D|--------------------------------------|
A|--------------------------------------|
E|--------------------------------------|


The Rock & Roll groove pattern follows
(use barre chords on the 4th,5th,6th strings with the pinky playing the 6th notes of course!)


A                       D               E
Were Going on a Holiday Swing,swing....(rpt)

D              E
Yeah its gonna be so neat...(rpt)

E
Twisting By the....

A                   D
Twisting By the Pool...



pre solo slow bit..

Bm   F#   Bm    D    E....  (a one, a two, a one two three four..)


the solo licks go a bit like this i think?

e|----------------------------------------------------------------------|
B|----/14-14--12-14-12-14-------/15-15-17-15---/12-12-14-12-------------|
G|----/14-14--12-14-12-14-------/14-14---------/12-12-------------------|
D|----------------------------------------------------------------------|
A|----------------------------------------------------------------------|
E|----------------------------------------------------------------------|

Repeat once




Not much to the song really, but a great party song!







comments
We did not receive enough feedback on this tab! Please rate:
print report bad tab
1 2 3 4 5
4 comments total. Showing first comments.
0 reply
Greg Harper wrote on October 6 2007, 08:45 am

e|------0-0-0-0-0-0-0-0-0---------------|
B|-----\8-8-7-7-5-5-7-7-8---------------|
G|--------------------------------------|
D|--------------------------------------|
A|--------------------------------------|
E|--------------------------------------|
Instead of that, try this:

e|------5-5-5-5-5-5-5-5-5---------------|
B|-----\8-8-7-7-5-5-7-7-8---------------|
G|--------------------------------------|
D|--------------------------------------|
A|--------------------------------------|
E|--------------------------------------|

0 reply
Greg Harper wrote on October 6 2007, 08:46 am

PS. its F#m not F#

0 reply
davey1272250 wrote on October 6 2007, 07:26 pm

cheers that sounds good, also on the solo lick it should be

e|-------------------|
B|----/12-12---14----|
G|-----11-11---------|

sorry

I want to post or [tab]
guest
You may want to rate the tab now too:
select rating
Please do not post tabs as comments. Select "correction" instead!