Oops, an error
Loading. Please wait.

Your Latest Trick intro tab

version 2
version 2

Intro

Whole song

  • Chord-melody fingerstyle tab of the song.

Interactive

17,215 views 54 this week
4 commentsread comments
1 2 3 4 5
x 11
add to favorites
×
Save as Personal and add changes to this tab that will be seen only by you. Learn more ›
×
You can save this tab as Personal to edit and correct it or add notes. All changes will be seen only by you. Learn more »
launch autoscroll
font size
0
reset
how to read this tab
guitar tuner
backing track
0:00
0:00
edit
Autoscroll
slow
fast
+/-
esc
set tempo
stop
Author
e|--------------------------------------------------|
B|-----4-5---5-------5-7----------7-5--2------------|
G|---6---------6-6-8-6-8-9-8-6-4-------2------------|
D|-6-------6---7---------------6--------------------|
A|--------------------------------------------------|
E|--------------------------------------------------|

e|---------2------------4-------4---5-4-------------|
B|-------2---2-4-0----4---7-5-7---------7-5-7-------|
G|-2-----------4-1--5-------------5-----------------|
D|-4----------------6-------------------------------|
A|-4--1---------------------------------------------|
E|-2------------------------------------------------|

e|--------------------------------------------------|
B|--5---5---------7----------7-5--2-----------------|
G|--------6-6-8-9-8-9-8-6-4-------2-----------------|
D|----6---7---------------6-------------------------|
A|--------------------------------------------------|
E|--------------------------------------------------|

e|---------2------------4-------4---5-4-------------|
B|-------2---2-4-0----4---7-5-7---------7-5-7-------|
G|-2-----------4-1--5-------------5-----------------|
D|-4----------------6-------------------------------|
A|-4--1---------------------------------------------|
E|-2------------------------------------------------|

when mark start to sign
e|-~4----5----2--0--------~5------------------------|
B|------------------4--2----------------------------|
G|--------------------------------------------------|
D|--------------------------------------------------|
A|--------------------------------------------------|
E|--------------------------------------------------|


its a very good piece of music
if you want the solo just ask for it, and i upload leater :)
"practice n' enjoy"



************************************

| ~  Vibrato

************************************

            
            
Suggest correction
Creating personal tab
Creating personal tab
You can edit any tab online and save it as your Personal.

You can edit, replace or remove any tab part or add personal notes – all changes will be seen only by you.

Personal tabs can be accessed anytime from any device, even offline.
Learn more »
comments
print report bad tab
4 comments total. Showing first comments.
+2 reply
guitarlover865 128 May 13, 2011 08:41 AM

Flawless if you ask me...
What are you waiting for bro, add the solo! :)

0 reply
florence007 70 Apr 15, 2013 03:43 AM

Absolutely spot on! Thank you!

+2 reply
Loip9114 77 Oct 31, 2013 01:12 PM

Absolutely great tab, one thing that might be my hearing, but

e|---------------|
B|-----4-5---4---|
G|---6---------6-|
D|-6-------6---7-|
A|---------------|
E|---------------|

and
e|------------|
B|----5---4---|
G|----------6-|
D|------6---7-|
A|------------|
E|------------|

sounds just that little bit better. However I could be wrong there, all with all awesome tab!

guest
You may want to rate the tab now too:
select rating
Wanna post a correction for this tab? Suggest correction