Oops, an error
Loading. Please wait.

In Orbit chords

16 views 3 this week
no commentswrite comment
1 2 3 4 5
3 more votes to show rating
add to favorites
×
Save as Personal and add changes to this tab that will be seen only by you. Learn more ›
×
You can save this tab as Personal to edit and correct it or add notes. All changes will be seen only by you. Learn more »
launch autoscroll
font size
0
reset
transpose
0
reset
display chords
guitar tuner
edit
Autoscroll
slow
fast
+/-
esc
set tempo
stop
About this tab version
Includes the lead for the solo/bridge. Note the repeats (x2/x3) I used to save some space. Was this info helpful? Yes No
Strumming
There is no strumming pattern for this song yet. and get +5 IQ
[Intro]
D    Bm G

[Verse]
           D
We left in rocket ships, just like the cartoon strips,
         Bm                          G
or movie scripts we've seen up on projection screens
   D
We left the earth for a new place of worth 
              Bm                      G
that we could call our own, without resistance no

[Chorus]
               Bm                     G
And we'll stay up all night before we sleep all day 
       D
and forget about our planet, blown away
                Bm                     G
Cause it's just me and you and a small robot crew 
               E                  G
that serves us tea for two in the orbit of the moon

[Instrumental] (x2)
D      Bm   G 

[Verse]
               D
We've got just two months time before rescue arrives, 
               Bm                         G
our crimes are left behind, we've all got peace of mind
   D                                                Bm                G
So why should we subject ourselves to the rigor and drudgery of a new world

[Chorus]
                        Bm                     G
When we could just stay up all night before we sleep all day 
       D
and forget about our planet, blown away
                Bm                     G
Cause it's just me and you and a small robot crew 
               E                  G
that serves us tea for two in the orbit of the moon

[Solo]
                            (x2)                          (x2)
D#|---------------------------|--------------------------|
A#|---------------------------|--------------------------|
F#|--2-----------------------o|o------------------------o|
C#|--------4--2-----4--2--0--o|o2-----4--0-----0-----0--o|
G#|---------------------------|--------------------------|
D#|---------------------------|--------------------------|

                          (x2)                           (x2)
D#|--------------------------|--------------------------|
A#|--------------------------|--------------------------|
F#|o2-----------------------o|o------------------------o|
C#|o------4--2-----4--2--0--o|o2-----4--0-----0-----0--o|
G#|--------------------------|--------------------------|
D#|--------------------------|--------------------------|

D#|----------------------------|
A#|----------------------------|
F#|----------------------------|
C#|--2--------------0--2--4----|
G#|----------------------------|
D#|----------------------------|

                                                   (x3)
D#|--------------------------------------------------|
A#|--------------------------------------------------|
F#|o2-----------------------------------------------o|
C#|o---------4--------2-----------4-----2-----0-----o|
G#|--------------------------------------------------|
D#|--------------------------------------------------|

                                                   (x2)
D#|--------------------------------------------------|
A#|--------------------------------------------------|
F#|o------------------------------------------------o|
C#|o2--------4--------0-----------------------------o|
G#|--------------------------------------------------|
D#|--------------------------------------------------|

D#|----------------------------|----------------------------|
A#|----------------------------|----------------------------|
F#|----------------------------|--2-------------------------|
C#|--2--------------0--2--4----|--------4--2----------------|
G#|----------------------------|----------------------------|
D#|--0-------------------------|----------------------------|

[Verse]
           D
We left in rocket ships, just like the cartoon strips,
         B                           G
or movie scripts we've seen up on projection screens
   D
We left the earth for a new place of worth 
              Bm                      G
that we could call our own, without resistance no

[Chorus]
               Bm                     G
And we'll stay up all night before we sleep all day 
       D
and forget about our planet, blown away
                Bm                     G
Cause it's just me and you and a small robot crew 
               E                  G
that serves us tea for two in the orbit of the moon

            
            
Suggest correction
Creating personal tab
Creating personal tab
You can edit any tab online and save it as your Personal.

You can edit, replace or remove any tab part or add personal notes – all changes will be seen only by you.

Personal tabs can be accessed anytime from any device, even offline.
Learn more »
Give kudos to tab author, rate the tab!
1 2 3 4 5
comments
print report bad tab
guest
You may want to rate the tab now too:
select rating
Wanna post a correction for this tab? Suggest correction