Oops, an error
Loading. Please wait.

Satan Says chords

43 views 1 this week
no commentswrite comment
1 2 3 4 5
3 more votes to show rating
add to favorites
×
Save as Personal and add changes to this tab that will be seen only by you. Learn more ›
×
You can save this tab as Personal to edit and correct it or add notes. All changes will be seen only by you. Learn more »
launch autoscroll
font size
0
reset
transpose
0
reset
display chords
guitar tuner
edit
Autoscroll
slow
fast
+/-
esc
set tempo
stop
About this tab version
Chord notation is relative to the Eb tuning. Probably best to use power chords. If using full chords, don't miss the F#m in the chorus. Was this info helpful? Yes No
Strumming Is this strumming pattern correct? Yes No
Riff Rhythm 207 bpm
1
&
2
&
3
&
4
&
5
&
6
&
7
&
8
&
9
&
10
&
11
&
12
&
13
&
14
&
15
&
16
&
Listen
[Main Riff]
D#|----------------------------|----------------------------|
A#|----------------------------|----------------------------|
F#|----------------------------|----------------------------|
C#|----------------------------|----------------------------|
G#|--0-----0-----------0-------|--2-----2--0-----0--2-------|
D#|-----------2-----2----------|----------------------------|

D#|----------------------------|----------------------------|
A#|----------------------------|----------------------------|
F#|----------------------------|----------------------------|
C#|----------------------------|----------------------------|
G#|--4-----4--2-----2--4-------|--7-----7--4-----4--2-------|
D#|----------------------------|----------------------------|

D#|----------------------------|----------------------------|
A#|----------------------------|----------------------------|
F#|----------------------------|----------------------------|
C#|----------------------------|----------------------------|
G#|--5-----5-----------5-------|--7-----7--5-----5--7-------|
D#|-----------7-----7----------|----------------------------|


D#|----------------------------|----------------------------||
A#|----------------------------|----------------------------||
F#|----------------------------|----------------------------||
C#|----------------------------|--7-------------------------||
G#|--9-----9--7-----7--9-------|----------------------------||
D#|----------------------------|----------------------------||

[Intro]
A  D (x2)

[Verse]
A                                                 D
 You've gotta stay away - I got a voice inside my head 
N.C.
that doesn't wanna play with you tonight
       A                                                 D
No, my calendar's blocked off for days - Just him and I alone
N.C.
We're drawing plays for ways to take the cake

[Pre-Chorus]
  B                    D    E
But he won't ever sleep, so it won't take much more time

[Verse]
A                                             D
 Look, I got a lot to say, but not to you not yet
N.C.
There's gotta be a better way for me to skin this cat
    A                                              D
But now I'm another day behind on catching up with my friend deep inside my crooked head

[Pre-Chorus]
  B                         D                 E
No, he won't stop until I'm dead - That's the only way to make him leave

[Chorus]
  A
But he gives me super powers
N.C.
Like the wizards in "Twin Towers"
N.C.
Big thanks for the vase of flowers - 
           F#m                      E
Sure, I've got 10 minutes, but it's not for hours
A
 We're aligning planets too - That's how you call Cthulu
N.C.
No, I'm not lying to you
       F#m                   E
Wait a goddamn minute, don't push the issue

[Verse]
A
 You've gotta stay away cause I gotta use this place 
     D
in a way that your mind won't erase
                             A
If you witness it, no saving grace 
N.C.
will deliver you from dreams that always end in screams 
    D
and leave you paralyzed inside your mind with all the lies

[Bridge]
            A
It won't be clean or organized
N.C.
It won't be neat or undisguised
              D
In fact, it's best if you're baptized 
N.C.
if you surmise you'll be surprised 
              A
by thighs cut up and thrown aside 
N.C.
with knives at least two inches wide
                  D
This time, go, or I'll pluck out your eyes and fry them up for me to dine on

[Pre-Chorus]
          B       D              E
We'll fall 10,000 feet, and it's you who's coming with me

[Chorus]
A
 He gave me super powers
N.C.
Like the wizards in "Twin Towers"
N.C.
Big thanks for the vase of flowers - 
           F#m                      E
Sure, I've got 10 minutes, but it's not for hours
A
 We're aligning planets too - That's how you call Cthulu
N.C.
No, I'm not lying to you
       F#m                   E
Wait a goddamn minute, don't push the issue

[Outro]
A
(scream ‘Get pumped’ till you can't anymore)
Suggest correction
Creating personal tab
Creating personal tab
You can edit any tab online and save it as your Personal.

You can edit, replace or remove any tab part or add personal notes – all changes will be seen only by you.

Personal tabs can be accessed anytime from any device, even offline.
Learn more »
Give kudos to tab author, rate the tab!
1 2 3 4 5
comments
print report bad tab
guest
You may want to rate the tab now too:
select rating
Wanna post a correction for this tab? Suggest correction