Oops, an error
Loading. Please wait.

The World Is Ending No One Cares Tab

58 views 3 this week
no commentswrite comment
1 2 3 4 5
3 more votes to show rating
add to favorites
launch autoscroll
font size
0
reset
how to read this tab
guitar tuner
Autoscroll
slow
fast
+/-
esc
set tempo
stop
Help us to improve Ultimate-Guitar.com Take our survey!
×
Author
Difficulty
Tuning
novice
D# G# C# F# A# D#
About this tab version
This has not been submitted before anywhere else on the internet. Thought I'd give a good starting point. Was this info helpful? Yes No
This probably isn't exact, but nobody has any of this posted anywhere else, so I thought I'd give the internet
a starting point. Go nuts.

Tuning: D#, Eb (D sharp, E flat)

Intro

eb|------------------------|
bb|-5-10-10-10-10-10-10-10-|
gb|-4- 9- 9- 9- 9- 9- 9- 9-|
db|-2- 7- 7- 7- 7- 7- 7- 7-|
ab|------------------------|
eb|------------------------|x3

eb|------------------------|
bb|-15-15-15-15-17-17-17-17|
gb|-14-14-14-14-16-16-16-16|
db|-12-12-12-12-14-14-14-14|
ab|------------------------|
eb|------------------------|

Verse 1
eb|---------------|
bb|---------------|
gb|-2-2-2-2-2-2---|
db|-2-2-2-2-2-2-22|
ab|-0-0-0-0-0-0-22|
eb|-------------00|x3

eb|------------------------|
bb|-15-15-15-15-17-17-17-17|
gb|-14-14-14-14-16-16-16-16|
db|-12-12-12-12-14-14-14-14|
ab|------------------------|
eb|------------------------|

Verse 2

eb|---------------|
bb|---------------|
gb|-2-2-2-2-2-2---|
db|-2-2-2-2-2-2-22|
ab|-0-0-0-0-0-0-22|
eb|-------------00|x3

eb|----------------|
bb|----------------|
gb|-7-7-7-7-9-9-9-9|
db|-7-7-7-7-9-9-9-9|
ab|-5-5-5-5-7-7-7-7|
eb|----------------|


eb|---------------|
bb|---------------|
gb|-2-2-2-2-2-2---|
db|-2-2-2-2-2-2-22|
ab|-0-0-0-0-0-0-22|
eb|-------------00|x3

eb|----------------|
bb|----------------|
gb|-7-7-7-7-9-9-9-9|
db|-7-7-7-7-9-9-9-9|
ab|-5-5-5-5-7-7-7-7|
eb|----------------|

Chorus

eb|--------------------------------|
bb|--------------------------------|
gb|-7-7-7-7-7-7-7-7-7-7-7-7-9-9-9-9|
db|-7-7-7-7-7-7-7-7-7-7-7-7-9-9-9-9|
ab|-5-5-5-5-5-5-5-5-4-4-4-4-7-7-7-7|
eb|--------------------------------|


eb|------------------------------------|
bb|------------------------------------|
gb|-7-7-7-7-7-7-7-7-4-4-4-4-4-4-4-4---2|
db|-7-7-7-7-7-7-7-7-4-4-4-4-4-4-4-4-2-2|
ab|-5-5-5-5-5-5-5-5-2-2-2-2-2-2-2-2-2-0|
eb|---------------------------------0--|


Verse 2 Again (the beginning is just bass)

eb|----------------|
bb|----------------|
gb|-7~------9~-----|
db|-7~------9~-----|
ab|-5~------7~-----|
eb|----------------|


eb|-----------------|
bb|-----------------|
gb|-----------------|
db|-----------------|
ab|-0-24-0-24-0-----|
eb|-------------3210|x3

eb|----------------|
bb|----------------|
gb|-7-7-7-7-9-9-9-9|
db|-7-7-7-7-9-9-9-9|
ab|-5-5-5-5-7-7-7-7|
eb|----------------|

Chorus

eb|--------------------------------|
bb|--------------------------------|
gb|-7-7-7-7-7-7-7-7-7-7-7-7-9-9-9-9|
db|-7-7-7-7-7-7-7-7-7-7-7-7-9-9-9-9|
ab|-5-5-5-5-5-5-5-5-4-4-4-4-7-7-7-7|
eb|--------------------------------|

eb|-------------------------------------|
bb|-------------------------------------|
gb|-7-7-7-7-7-7-7-7-4-4-4-4-4-4-4-4--9-8|
db|-7-7-7-7-7-7-7-7-4-4-4-4-4-4-4-4--7-6|
ab|-5-5-5-5-5-5-5-5-2-2-2-2-2-2-2-2--7-6|
eb|-------------------------------------|


eb|--------------------------------|
bb|--------------------------------|
gb|-7-7-7-7-7-7-7-7-7-7-7-7-9-9-9-9|
db|-7-7-7-7-7-7-7-7-7-7-7-7-9-9-9-9|
ab|-5-5-5-5-5-5-5-5-4-4-4-4-7-7-7-7|
eb|--------------------------------|

eb|--------------------------------|
bb|--------------------------------|
gb|-7-7-7-7-7-7-7-7-4-4-4-4-4-4-4-4|
db|-7-7-7-7-7-7-7-7-4-4-4-4-4-4-4-4|
ab|-5-5-5-5-5-5-5-5-2-2-2-2-2-2-2-2|
eb|--------------------------------|


Verse 3

eb|--------------------------------|
bb|--------------------------------|
gb|-44444-7-------7----------------|
db|-44444-5-77777-7-5-5-5-5-5-5-5-5|
ab|-22222-5-77777-5-5-5-5-5-5-5-5-5|
eb|---------55555---3-3-3-3-3-3-3-3|

eb|--------------------------------|
bb|--------------------------------|
gb|-------7-------7----------------|
db|-99999-5-77777-7-5-5-5-5-5-5-5-5|
ab|-99999-5-77777-5-5-5-5-5-5-5-5-5|
eb|-77777---55555---3-3-3-3-3-3-3-3|

eb|--------------------------------|
bb|-------5-------5----------------|
gb|-77777-7-55555-7-3-3-3-3-3-3-3-3|
db|-99999-5-77777-7-5-5-5-5-5-5-5-5|
ab|-99999-5-77777-5-5-5-5-5-5-5-5-5|
eb|-77777---55555---3-3-3-3-3-3-3-3|

eb|---------------0-0-0-0-0-0-0-0-0|
bb|---------------2-2-2-2-2-2-2-2-2|
gb|-2-2-2-2-2-2-2-2-2-2-2-2-2-2-2-2|
db|-2-2-2-2-2-2-2-2-2-2-2-2-2-2-2-2|
ab|-0-0-0-0-0-0-0-0-0-0-0-0-0-0-0-0|
eb|--------------------------------|

eb|------------------------------------------|
bb|-10-10-10-10-10-10-10-5-10-10-10-10--10-10|
gb|- 9- 9- 9- 9- 9- 9- 9-4- 9- 9- 9- 9-- 9- 9|
db|- 7- 7- 7- 7- 7- 7- 7-2- 7- 7- 7- 7-- 7- 7|
ab|------------------------------------------|
eb|------------------------------------------|

Verse 1 Again (sort of)

eb|--------------|
bb|--------------|
gb|-2-2-2-2-2-2--|
db|-2-2-2-2-2-2-2|
ab|-0-0-0-0-0-0-2|
eb|-------------0|x4

eb|-----------------|
bb|-----------------|
gb|-----------------|
db|-----------------|
ab|-0-24-0-24-0-----|
eb|-------------3210|x3

eb|---------------------------|
bb|-15-15-15-15-17171717171717|
gb|-14-14-14-14-16161616161616|
db|-12-12-12-12-14141414141414|
ab|---------------------------|
eb|---------------------------|

eb|-----|
bb|-----|
gb|-2--2|
db|-0--0|
ab|-0--0|
eb|-----|
Suggest correction
Give kudos to tab author, rate the tab!
1 2 3 4 5
comments
print report bad tab
guest
You may want to rate the tab now too:
select rating
Wanna post a correction for this tab? Suggest correction