Oops, an error
Loading. Please wait.

Liebst Du Auch Den Rauhen Wind Chords

3,957 views 12 this week
no commentswrite comment
1 2 3 4 5
please rate
add to favorites
launch autoscroll
font size
0
reset
transpose
0
reset
simplify chords
display chords
guitar tuner
Tab Pro tools
  • play this tab
  • loop segment
  • change instrument
  • show fretboard
  • metronome
×
Best way to learn
"Liebst Du Auch Den Rauhen Wind"
Autoscroll
slow
fast
+/-
esc
set tempo
stop
Contributor
Difficulty
novice
http://www.dirk-busch.de/
Liebst du auch den rauhen Wind -- Dirk Busch

I will perform that for Mummy... so that's my first tab (@UG!!!)
Hope it works fine for you!

*You will find tabbed RIFFS for Lead guitar at the bottom!*


Intro:

F F4 F F4 F F4 F 

                          F    F4 F
Liebst du auch den rauhen Wind
        F4              F      F4 F
wenn er schön von vorne bläst
             F4                F   
magst du die Menschen die hier sind
F4             F
so ehrlich und echt
F4              C
so rauh wie der Wind.
                          F    F4 F
Liebst du auch den rauhen Wind
        F4              F      F4 F
der das Meer nach vorne treibt
        F4        F
der die Bäume zerzaust
      F4         F
durch Kornfelder braust
F4          C
seit ewiger Zeit
                     Bb
liebst du auch den rauhen Wind
                         F    F4 F
liebst du auch den rauhen Wind.

                 C
Hier gibt's noch Menschen

die sich mögen
         Bb
die ganz einfach Freunde sind
                      Gm
die nicht stundenlang reden
      Bb                 F F4 F F4
und erklären weshalb, wieso.
                 C
Hier gibt's noch Menschen

die sich helfen
     Bb        F
ohne Denken an Gewinn
                 C
sie sind einfach da
         Bb            F F4 F
weil sie deine Freunde sind.
                    C
ja sie sind einfach da
         Bb            F F4 F
weil sie deine Freunde sind.

                          F    F4 F
Liebst du auch den rauhen Wind
        F4              F      F4 F
wenn er schön von vorne bläst
             F4                F   
magst du die Menschen die hier sind
F4             F
so ehrlich und echt
F4              C
so rauh wie der Wind.
                          F    F4 F
Liebst du auch den rauhen Wind
             C          
Hier gibt es Wiesen, weite Felder
        Bb             F
hin und wieder mal ein Knick
           Gm
friedliche Stille
         Bb              F F4 F F4
die dich unsrer Zeit entrückt.
             C
Hier gibt es keine große Hetze
         Bb                 F
und kein Berg verstellt den Blick
           C
bist du am Meer
            Bb                F F4 F F4
Läßt du den Alltag schnell zurück.
              C
ja bist du am Meer
            Bb                F F4 F
Läßt du den Alltag schnell zurück.

                          F    F4 F
Liebst du auch den rauhen Wind
        F4              F      F4 F
wenn er schön von vorne bläst
             F4                F   
magst du die Menschen die hier sind
F4             F
so ehrlich und echt
F4              C
so rauh wie der Wind.
                          F    F4 F
Liebst du auch den rauhen Wind
        F4              F      F4 F
der das Meer nach vorne treibt
        F4        F
der die Bäume zerzaust
      F4         F
durch Kornfelder braust
F4          C
seit ewiger Zeit
                     Bb
liebst du auch den rauhen Wind
                         F    F4 F 
liebst du auch den rauhen Wind.
         F4               F   F4 F
Liebst du auch den rauhen Wind

END!


Riffs (only the improtant ones, I think you can improvise the rest of the real ones!):

intro riff (start playing with intro):
  F   F4   F   F4   F    F4     F
E:--------|--------|------13------|
B:13--11--|10------|----11--11--10|
G:--------|----12--|--10----------| -
D:--------|--------|10------------|
A:--------|--------|--------------|
E:--------|--------|--------------|


fill Riffs for strophe:
  F   F4        F   F4   F    F4        F    F4  F F4   F  F4 
E:-------------|--------|--------------|-------|------|------|
B:-------11-10-|--------|--------------|-------|------|------|
G:-------------|10------|--------12-12-|-------|------|------|
D:-------------|--------|--------------|10-----|------|------|
A:-------------|--------|--------------|-------|------|------|
E:-------------|--------|--------------|-------|------|------|

  C
E:---13----------------|
B:-----13--------------|
G:-------11-13-11-10---|
D:-------------------10|
A:---------------------|
E:---------------------|

  F   F4        F   F4   F    F4        F    F4  F F4   F  F4 
E:-------------|--------|--------------|-------|------|------|
B:-------11-10-|--------|--------------|-------|------|------|
G:-------------|10------|--------12-12-|-------|------|------|
D:-------------|--------|--------------|10-----|------|------|
A:-------------|--------|--------------|-------|------|------|
E:-------------|--------|--------------|-------|------|------|

  C                     Bb                  F
E:---------------------|---------10--------|--------|
B:--------10-----------|-------------------|10------|
G:--10-12----12------12|10-----------10-12-|--------|
D:---------------------|-------------------|--------|
A:---------------------|-------------------|--------|
E:---------------------|-------------------|--------|

Riff at the end of refrain:

             C              Bb                  F
E:-17-15-13-|15------15-17-|18----18-18-17-----|13------|
B:----------|--------------|-------------------|--------|
G:----------|--------------|-------------------|--------|
D:----------|--------------|-------------------|--------|
A:----------|--------------|-------------------|--------|
E:----------|--------------|-------------------|--------|


End riff(play after the last word before last line)
  F   F4       F   F4       F    F4      F
E:-------13---|-------13---|-------13---|---------|
B:10--11----11|10--11----11|10--11----11|10-------|
G:------------|------------|------------|---------|
D:------------|------------|------------|---------|
A:------------|------------|------------|---------|
E:------------|------------|------------|---------|
comments
We did not receive enough feedback on this tab! Please rate:
print report bad tab
1 2 3 4 5
I want to post or [tab]
guest
You may want to rate the tab now too:
select rating
Please do not post tabs as comments. Select "correction" instead!