Oops, an error
Loading. Please wait.

Both Sides Now Chords

813 views 1 this week
no commentswrite comment
1 2 3 4 5
please rate
add to favorites
launch autoscroll
font size
0
reset
transpose
0
reset
simplify chords
display chords
guitar tuner
Autoscroll
slow
fast
+/-
esc
set tempo
stop
Help us to improve Ultimate-Guitar.com Take our survey!
×
Author
Difficulty
Capo
novice
2nd fret
Both Sides Now - Joni Mitchel (Dirk Darmstaedter version)
Capo 2nd fret
Intro:		
		e||--------8-8-8-7-5-----------7-5-5-3---------8-8-8-7-5----------7-5-3--||
		h||-8/10-8-8-8-8-----8--8/10-8-7-5-5-3--8/10-8-8-8-8-----8--8/10--7-5-3--||
		g||-7/9--7--------------7/9--7----------7/9--7--------------7/9----------||


Verse:		
		 G      G/B       C        G        Gmaj7          C        G
		----3-------3--------0-------3------------2----------0--------3--|
		----3-------3--------1-------3--------3-----3--------1--------3--|
		--0---0---0---0----0---0---0---0----4---4-----4----0---0----0----|
		----------------------------------0------------------------------|
		--------2--------3-------------------------------3---------------|
		-3-----------------------3--------------------------------3------|

		 G      G/F#    C        C/B      Am7             D
		----3-------3--------0--------0------------0----------2--|
		----3-------3--------1--------1--------1-----1--------3--|
		--0---0---0---0----0---0----0---0----0---0-----0----2----|
		--------------------------------------------------0------|
		-----------------3--------2--------0---------------------|
		-3------2------------------------------------------------|  and so on...

G        G/B       C      G       Gmaj7              C       G
Bows and flows of angel hair, and ice cream castles in the air,
    G       G/F#    C    C/B           Am7                 D
And feather canyons everywhere I've looked at clouds that way.
     G       G/B   C        G         Gmaj7            C    G
But now they only block the sun, they rain and snow on everyone.
   G     G/F#      C         C/B        Am7               D
So many things I would have done, but clouds got in the way.
      G                     C          G
I've looked at clouds from both sides now,
      C      G          C        G
From up and down, and still somehow
      Gmaj7   Am7     G   Em          C               D        G        
It's clouds illusions I recall; I really don't know clouds at all.

Interlude:	 
		 G      G/F#    G/E             C      C/B     C/A
		-----3------3-------3-----3---------0-------0------|
		-----3------3-------3-----3---------1-------1------|
		---0---0--0---0---0---------------0---0---0---0----|
		---------------------------------------------------|
		--------------------------------3-------2-------0--|
		-3-------2------0-----0-0--------------------------| TAP TAP

G         G/B        C       G          Gmaj7         C        G
Moons and Junes and ferris wheels, the dizzy dancing way you feel
     G     G/F#  C           C/B          Am7                 D
When every fairy tale comes real   I've looked at love that way.
     G       G/B    C       G       Gmaj7              C       G
But now it's just another show, you leave 'em laughing as you go,
    G       G/F#       C         C/B  Am7                       D
And if you care, don't let them know,    don't give yourself away.
       G                  C          G
I've looked at love from both sides now,
       C        G         C        G
From give and take, and still somehow,
     Gmaj7    Am7     G    Em      C                 D       G
It's love's illusions I recall; I really don't know love at all.

Interlude

G          G/B       C       G       Gmaj7             C         G
Tears and fears and feeling proud to say "I love you" right out loud;
G          G/F#        C      C/B   Am7                           D
Dreams and schemes and circus crowds   I've looked at life that way.
     G      G/B          C        G        
But now old friends are acting strange, 
     G           Gmaj7      C          G
They shake their heads and say I've changed,
      G/F#       Em       C           C/B    Am7                   D
But something's lost and something's gained     from living every day.
 G                        C          G
I've looked at life from both sides now,
      C       G          C       G
From win and lose, and still somehow,
     Gmaj7   Am7      G    Em     C      C/B          D      G
It's life's illusions I recall; I really don't know life at all.


In the original Dirk Darmstaeder version the interlude equals the intro. It sounds 
better if you play it the way I written it down if you only have one guitar...
Suggest correction
Give kudos to tab author, rate the tab!
1 2 3 4 5
comments
print report bad tab
guest
You may want to rate the tab now too:
select rating
Please do not post tabs as comments. Select "correction" instead!