Oops, an error
Loading. Please wait.

Ripper Tab

by Dirt
47 views 1 this week
no commentswrite comment
1 2 3 4 5
please rate
add to favorites
launch autoscroll
font size
0
reset
how to read this tab
guitar tuner
Tab Pro tools
  • play this tab
  • loop segment
  • change instrument
  • show fretboard
  • metronome
Autoscroll
slow
fast
+/-
esc
set tempo
stop
Contributor
Difficulty
novice
Intro:

e|8-----8-----------7--------------------|
b|8-------8---------8--------------------|
g|9---------9-------9------9-------------| Play until sound's steps will over
d|10----------------9-------9------------|
a|10----------------7--------7-----------|
e|8-----------------7--------------------|

Verses(first part):

e|8-----8-----------7--------------------|
b|8-------8---------8--------------------|
g|9---------9-------9------9-------------| Play until music became more speed
d|10----------------9-------9------------|
a|10----------------7--------7-----------|
e|8-----------------7--------------------|

Verses (Second Part)

e|8----8------------7---7-----------------|
b|8----8------------8---8-----------------|
g|9----9------------9---9-----------------| 
d|10---10-----------9---9-----------------|
a|10---10-----------7---7-----------------|
e|8----8------------7---7-----------------|



http://www.youtube.com/watch?v=3ZBMSOQg_sk

Lyrics (impossible to find ,that's the truth)

When you’re walking alone at night
Alone through the streets,and the stars are shining bright
They’re casting shadows on the Houses
The rain start to fall and the clouds start to cover up the light Thats shining from all over
And the streetlights aren’t working
It’s dark and you’re alone x2
And you feel so frightened
And your pace gets faster
In an instant you see a man who’s,leaning on a wall but you can’t quite make out his appearance
It’s dark and you’re alone x2
Your heart beats faster as you realise he’s moving and you’re still so far from the safety of your home.
And the stranger has vanished
You hear foot steps from behind so you turn to look
And there’s the man
Who’s got a knife in his hand
and then looks at you in the eyes
And you try to run,and he kicked you from behind,grab you by the hair and pushed you to the ground
Fell into a puddle with a screaming face (not sure)
And you don’t know why x3
Your just another statistic x 7
To be read over the morning paper
You’re own potential victim x 7
Not me  x5
It’s you x2
And the Police are called
And the Police are cold
And the Police are called
And your just another statistic
To be read over the morning breakfast
You don’t know why
And you don’t know why x4
And you never will know
comments
We did not receive enough feedback on this tab! Please rate:
print report bad tab
1 2 3 4 5
I want to post or [tab]
guest
You may want to rate the tab now too:
select rating
Please do not post tabs as comments. Select "correction" instead!