Oops, an error
Loading. Please wait.

Wooden Gun Tab

by Dirt
67 views 1 this week
no commentswrite comment
1 2 3 4 5
please rate
add to favorites
launch autoscroll
font size
0
reset
how to read this tab
guitar tuner
Autoscroll
slow
fast
+/-
esc
set tempo
stop
Help us to improve Ultimate-Guitar.com Take our survey!
×
Author
Difficulty
novice
if you have questions, send me email in machine_sk8@hotmail.fr

please let me rating :)
enjoy!

First Part

Intro/verses:

e|-------------------------|---------------------------|
b|-------------------------|---------------------------|
g|-------------------------|---7--7--7--7~6--6--6--6---|
d|--4--4--4--4--4--4--4--4-|--7--7--7--7~6--6--6--6----|
a|-4--4--4--4--4--4--4--4--|-5--5--5--5~4--4--4--4-----|
e|2--2--2--2--2--2--2--2---|---------------------------|

A toy is only a play thing | to be broken and thrown away 

e|-------------------------------|---------------------------|
b|-------------------------------|---------------------------|
g|-------------------------------|---7--7--7--7~6--6--6--6---|
d|--4--4--4--4--4--4--4--4-------|--7--7--7--7~6--6--6--6----|
a|-4--4--4--4--4--4--4--4--------|-5--5--5--5~4--4--4--4-----|
e|2--2--2--2--2--2--2--2---------|---------------------------|

but even a kiddies toy may bring | a tear or sigh some day. 

e|-------------------------------|---------------------------|
b|-------------------------------|---------------------------|
g|-------------------------------|---7--7--7--7~6--6--6--6---|
d|--4--4--4--4--4--4--4--4-------|--7--7--7--7~6--6--6--6----|
a|-4--4--4--4--4--4--4--4--------|-5--5--5--5~4--4--4--4-----|
e|2--2--2--2--2--2--2--2---------|---------------------------|

They gave him a gun to play with |  when he was a little boy. 

e|-------------------------------|---------------------------|
b|-------------------------------|---------------------------|
g|-------------------------------|---7--7--7--7~6--6--6--6---|
d|--4--4--4--4--4--4--4--4-------|--7--7--7--7~6--6--6--6----|
a|-4--4--4--4--4--4--4--4--------|-5--5--5--5~4--4--4--4-----|
e|2--2--2--2--2--2--2--2---------|---------------------------|

They gave him a gun to play with | it was his favourite toy. 

Solo Second Guitar 

e|17---------------------------------|
b|---16-14---14----------14----------|
g|--------15----15----15-----15------|
d|-----------------16----------16~---|
a|-----------------------------------|
E|-----------------------------------|

They bought some brave tin soldiers and he thought it all such fun. 

First Guitar rythmic

e|-------------------------------------|
b|-------------------------------------|
G|-------------------------------------| 
d|--7-7-7-7-7-4-4-4-4-4-4-4------------|
a|-7-7-7-7-7-4-4-4-4-4-4-4-------------|
e|5-5-5-5-5-2-2-2-2-2-2-2--------------|

Solo Second Guitar 

e|-------------------------------------|
b|12H13-12H13-14---12H13-12H13-14------|
G|-------------------------------------| 
d|-------------------------------------|
a|-------------------------------------|
e|-------------------------------------|

To shoot those brave tin soldiers with his little wooden …

First Guitar rythmic
e|-------------------------------------|
b|-------------------------------------|
G|-------------------------------------| 
d|--7-7-7-7-7-7-7-7-7-7-7-7------------|
a|-7-7-7-7-7-7-7-7-7-7-7-7-------------|
e|5-5-5-5-5-5-5-5-5-5-5-5--------------|

GUUUUUUUUUUUUUUUUUUUUUUUUUUNNNNN!!!!!!!!

First Guitar Rytmic

e|-------------------------------|---------------------------|
b|-------------------------------|---------------------------|
g|-------------------------------|---7--7--7--7~6--6--6--6---|
d|--4--4--4--4--4--4--4--4-------|--7--7--7--7~6--6--6--6----|
a|-4--4--4--4--4--4--4--4--------|-5--5--5--5~4--4--4--4-----|
e|2--2--2--2--2--2--2--2---------|---------------------------|

e|-----------------------------------------------------------|
b|-----------------------------------------------------------|
G|-----------------------------------------------------------| 
d|--7-7-7-7-7-7-7-7~4-4-4-4-4-4-4-4~7-7-7-7-7-7-7-7-7--------|
a|-7-7-7-7-7-7-7-7~4-4-4-4-4-4-4-4~7-7-7-7-7-7-7-7-7---------|
e|5-5-5-5-5-5-5-5~2-2-2-2-2-2-2-2~5-5-5-5-5-5-5-5-5----------|

Solo Second Guitar 
e|17---------------------------------------------------------|
b|---16-14---14----------14---------12H13-12H13--------------|
g|--------15----15----15-----15------------------------------|
d|-----------------16----------16~---------------------------|
a|-----------------------------------------------------------|
E|-----------------------------------------------------------|

Second part:

e|-------------------------------|---------------------------|
b|-------------------------------|---------------------------|
g|-------------------------------|---7--7--7--7~6--6--6--6---|
d|--4--4--4--4--4--4--4--4-------|--7--7--7--7~6--6--6--6----|
a|-4--4--4--4--4--4--4--4--------|-5--5--5--5~4--4--4--4-----|
e|2--2--2--2--2--2--2--2---------|---------------------------|

'When I grow up' he told them    | 'I'll go and fight the foe' 

e|-----------------------------------------|---------------------------|
b|-----------------------------------------|---------------------------|
g|-----------------------------------------|---7--7--7--7~6--6--6--6---|
d|--4--4--4--4--4--4--4--4-----------------|--7--7--7--7~6--6--6--6----|
a|-4--4--4--4--4--4--4--4------------------|-5--5--5--5~4--4--4--4-----|
e|2--2--2--2--2--2--2--2-------------------|---------------------------|

till one day he carried a real gun and now |he sleeps where the poppies grow. 

e|------------------------------------------------|------------------------|
b|------------------------------------------------|------------------------|
g|------------------------------------------------|---7--7--7--7~6--6--6--6|
d|--4--4--4--4--4--4--4--4------------------------|--7--7--7--7~6--6--6--6-|
a|-4--4--4--4--4--4--4--4-------------------------|-5--5--5--5~4--4--4--4--|
e|2--2--2--2--2--2--2--2--------------------------|------------------------|

A token he left behind him a memory of days of joy|the gun he used to play with 
when he was a little boy. 

Solo Second Guitar 

e|17---------------------------------|
b|---16-14---14----------14----------|
g|--------15----15----15-----15------|
d|-----------------16----------16~---|
a|-----------------------------------|
E|-----------------------------------|

They bought some brave tin soldiers and he thought it all such fun 

First Guitar rythmic

e|-------------------------------------|
b|-------------------------------------|
G|-------------------------------------| 
d|--7-7-7-7-7-4-4-4-4-4-4-4------------|
a|-7-7-7-7-7-4-4-4-4-4-4-4-------------|
e|5-5-5-5-5-2-2-2-2-2-2-2--------------|

to shoot those brave tin soldiers with his little wooden ...

Solo Second Guitar 

e|-------------------------------------|
b|12H13-12H13-14---12H13-12H13-14------|
G|-------------------------------------| 
d|-------------------------------------|
a|-------------------------------------|
e|-------------------------------------|

First Guitar rythmic

e|-------------------------------------|
b|-------------------------------------|        
G|-------------------------------------|
d|--7-7-7-7-7-7-7-7-7-7-7-7------------|                
a|-7-7-7-7-7-7-7-7-7-7-7-7-------------|
e|5-5-5-5-5-5-5-5-5-5-5-5--------------|

GUUUUUUUUUUUUUUUUUUUUUUUUUN!!!!!!

First Guitar Rytmic

e|-------------------------------|---------------------------|
b|-------------------------------|---------------------------|
g|-------------------------------|---7--7--7--7~6--6--6--6---|
d|--4--4--4--4--4--4--4--4-------|--7--7--7--7~6--6--6--6----|
a|-4--4--4--4--4--4--4--4--------|-5--5--5--5~4--4--4--4-----|
e|2--2--2--2--2--2--2--2---------|---------------------------|

e|-----------------------------------------------------------|
b|-----------------------------------------------------------|
G|-----------------------------------------------------------| 
d|--7-7-7-7-7-7-7-7~4-4-4-4-4-4-4-4~7-7-7-7-7-7-7-7-7--------|
a|-7-7-7-7-7-7-7-7~4-4-4-4-4-4-4-4~7-7-7-7-7-7-7-7-7---------|
e|5-5-5-5-5-5-5-5~2-2-2-2-2-2-2-2~5-5-5-5-5-5-5-5-5----------|

Solo Second Guitar 
e|17---------------------------------------------------------|
b|---16-14---14----------14---------12H13-12H13--------------|
g|--------15----15----15-----15------------------------------|
d|-----------------16----------16~---------------------------|
a|-----------------------------------------------------------|
E|-----------------------------------------------------------|

http://www.youtube.com/watch?v=9A0ACr8y4ew
Suggest correction
Give kudos to tab author, rate the tab!
1 2 3 4 5
comments
print report bad tab
guest
You may want to rate the tab now too:
select rating
Please do not post tabs as comments. Select "correction" instead!