Oops, an error
Loading. Please wait.

Lay Me Down Tab

version 4
version 4

Whole song

1,308 views 1 this week
no commentswrite comment
1 2 3 4 5
3 more votes to show rating
add to favorites
launch autoscroll
font size
0
reset
how to read this tab
guitar tuner
Autoscroll
slow
fast
+/-
esc
set tempo
stop
Help us to improve Ultimate-Guitar.com Take our survey!
×
Pretty chill song that is really fun to listen to and play. Easy too! There's 
already a few correct song tabs so I won't tab the whole song but I noticed that 
none of the tabs have the higher pitched end solo in the background so I thought 
I'd tab it out for all of ya.

Here we go...

Guitar 1 Solo: Played during end solo
e|---------------------------------------|
B|---------------------------------------|
G|---------------------------------------|
D|-----5-5h7--5-5h7------9-7-5----5h7-5--|
A|--7---------------------------7--------|
E|---------------------------------------|

End Solo:
|----------------------------------------------------------|
|--15~--13-12----------12----------------------------------|
|-------------14-12h14----14~-14~---14-14-14b-14-12-12/9-9-|
|----------------------------------------------------------|
|----------------------------------------------------------|
|----------------------------------------------------------|

|----------15-17-17b-17--|                             
|-12/15-15---------------|
|------------------------|
|------------------------|     
|------------------------|                                         
|------------------------|
                          


----------------------------------------------------------------------------
                          -MERRY CHRISTMAS 2010 UG-
Suggest correction
Give kudos to tab author, rate the tab!
1 2 3 4 5
comments
print report bad tab
guest
You may want to rate the tab now too:
select rating
Wanna post a correction for this tab? Suggest correction