Oops, an error
Loading. Please wait.

Runnin Wild tab

version 1
version 1

Whole song

661 views 1 this week
no commentswrite comment
1 2 3 4 5
3 more votes to show rating
add to favorites
×
Save as Personal and add changes to this tab that will be seen only by you. Learn more ›
×
You can save this tab as Personal to edit and correct it or add notes. All changes will be seen only by you. Learn more »
launch autoscroll
font size
0
reset
how to read this tab
guitar tuner
edit
Autoscroll
slow
fast
+/-
esc
set tempo
stop
Author
Difficulty
This is all I have so far for this amazing song from Dirty Penny a very underrated band!
There might be a few mistakes but it works pretty well to me.
It's Standar Tuning.
Link to the offical site:http://dirtypennysucks.com/
Enjoy





Runnin' Wild                                   


                                                                     Dirty Penny
Track 1



               Main Riff                            
                                PM            PM    
               E         S S E  S  E.  S S E  S  S  
E||-------||---------------------------------------|
B||-------||---------------------------------------|
G||-------||*--------------------------------------|
D||-------||*------------5---5---------5---5-------|
A||-------||-------------5---5---------5---5-------|
E||-------||---1---------3---3--0--1---3---3--0--1-|


  E  S S E  S S S S S S S E.   5x
-------------------------------||
-------------------------------||
------------x-x-3-3-x-5-x-3---*||
-----5---5--x-x-3-3-x-5-x-3---*||
-----5---5--x-x-1-1-x-3-x-1----||
--L--3---3---------------------||


   Verse Riff                                     
              PM PM PM PM PM     PM PM PM PM      
   E          S  S  S  S  S  E.  S  S  S  S  S S  
-------------------------------------------------|
-------------------------------------------------|
*------------------------------------------------|
*------------------------------------------------|
-------------------------------------------------|
---1----------3--3--3--3--0--1---3--3--3--3--0-1-|


     PM PM PM PM                      
  E  S  S  S  S  S S S S S S S E.   3x
------------------------------------||
------------------------------------||
-----------------x-x-3-3-x-5-x-3---*||
-----------------x-x-3-3-x-5-x-3---*||
-----------------x-x-1-1-x-3-x-1----||
--L--3--3--3--3---------------------||


  Verse Riff                                     
             PM PM PM PM PM     PM PM PM PM      
  E          S  S  S  S  S  E.  S  S  S  S  S S  
------------------------------------------------|
------------------------------------------------|
------------------------------------------------|
------------------------------------------------|
------------------------------------------------|
--1----------3--3--3--3--0--1---3--3--3--3--0-1-|


                                  Chorus             
     PM PM PM PM                                     
  E  S  S  S  S  S E.  E.  E.     H        H         
-------------------------------|--------------------|
-------------------------------|--------------------|
-----------------x-3---4---5---|--3--------5--------|
-----------------x-3---4---5---|--3--------5--------|
-----------------x-1---2---3---|--1--------3--------|
--L--3--3--3--3----------------|--------------------|


            PM            PM                         
  E  S S E  S  E.  S S E  S  S    H        H         
-------------------------------|--------------------|
-------------------------------|--------------------|
-------------------------------|--3--------5--------|
-----5---5---------5---5-------|--3--------5--------|
-----5---5---------5---5-------|--1--------3--------|
--1--3---3--0--1---3---3--0--1-|--------------------|


            PM            PM                                                 
  E  S S E  S  E.  S S E  S  S    W                   H.           S S  S S  
-------------------------------|-------------------|---------------5-6p-5---|
-------------------------------|-------------------|----------------------6-|
-------------------------------|--3----------------|--5---------------------|
-----5---5---------5---5-------|--3----------------|--5---------------------|
-----5---5---------5---5-------|--1----------------|--3---------------------|
--1--3---3--0--1---3---3--0--1-|-------------------|------------------------|

            Here you go back at the main riff  Break after 2nd and 3rd chorus
  H        H           E  S S E  S S H           Q    S Q    S Q    S Q    S  
--------------------|-------------------------|------------------------------|
--------------------|-------------------------|------------------------------|
--3--------5--------|-------------------------|---------3----L--------5----L-|
--3--------5--------|-----5---5----5----------|--3----L-3----L-5----L-5----L-|
--1--------3--------|-----5---5----5----------|--3----L-1----L-5----L-3----L-|
--------------------|--1--3---3----3----------|--1----L--------3----L--------|


  S S S S S S E  S S Q.        S S S S S S E  Q    Q     
----------------------------|---------------------------|
----------------------------|---------------------------|
----------------------------|-----------------3----5----|
--5-5-x-5-x-x-3--5----------|--5-5-x-5-x-x-3--3----5----|
--5-5-x-5-x-x-3--5----------|--5-5-x-5-x-x-3--1----3----|
--3-3-x-3-x-x-1--3----------|--3-3-x-3-x-x-1------------|


  S S S S S S E  S S Q.        Q    S Q    S Q    S Q    S  
----------------------------|------------------------------|
----------------------------|------------------------------|
----------------------------|---------3----L--------5----L-|
--5-5-x-5-x-x-3--5----------|--3----L-3----L-5----L-5----L-|
--5-5-x-5-x-x-3--5----------|--3----L-1----L-5----L-3----L-|
--3-3-x-3-x-x-1--3----------|--1----L--------3----L--------|


  S S S S S S E  S S Q.        S S S S S S E  Q    Q     
----------------------------|---------------------------|
----------------------------|---------------------------|
----------------------------|-----------------3----5----|
--5-5-x-5-x-x-3--5----------|--5-5-x-5-x-x-3--3----5----|
--5-5-x-5-x-x-3--5----------|--5-5-x-5-x-x-3--1----3----|
--3-3-x-3-x-x-1--3----------|--3-3-x-3-x-x-1------------|


  S S S S S S E  S S Q.        Q    S Q    S Q    S Q    S  
----------------------------|------------------------------|
----------------------------|------------------------------|
----------------------------|---------3----L--------5----L-|
--5-5-x-5-x-x-3--5----------|--3----L-3----L-5----L-5----L-|
--5-5-x-5-x-x-3--5----------|--3----L-1----L-5----L-3----L-|
--3-3-x-3-x-x-1--3----------|--1----L--------3----L--------|


  PM PM PM PM PM PM PM PM PM PM PM PM                                   
  S  S  S  S  S  S  S  S  S  S  S  S  S S S S    S S S E  H        E.   
----------------------------------------------|------------------------|
----------------------------------------------|------------------------|
----------------------------------------------|------------------------|
--5--5--5--5--5--5--5--5--5--5--5--5--5-5-5-5-|--5-5-5-----------------|
--5--5--5--5--5--5--5--5--5--5--5--5--5-5-5-5-|--5-5-5-----------------|
--3--3--3--3--3--3--3--3--3--3--3--3--3-3-3-3-|--3-3-3-----------------|

Here's the solo , I will try to tab it and then update the tab.
After the solo you have the chorus and the break

This is what Johnny does before the 2nd verse:

                                            
   S                S  S  S  S  S  S  S  H                  
-------------------15----17----18----15------------|------||
--15------------------15----15----15----18b--------|------||
---------------------------------------------------|------||
---------------------------------------------------|------||
---------------------------------------------------|------||
---------------------------------------------------|------||

That's pretty much it without the solo. 


Duration Legend
---------------
W - whole
H - half
Q - quarter
E - 8th
S - 16th
T - 32nd
X - 64th
. - note dotted
|-n-|  - n-tuplets


Tablature Legend
----------------
L - tied note
x - dead note
g - grace note
(n) - ghost note
> - accentuded note
NH - natural harmonic
AH - artificial harmonic
TH - tapped harmonic
SH - semi harmonic
PH - pitch harmonic
h - hammer on
p - pull off
b - bend
br - bendRelease
pb - preBend
pbr - preBendRelease
brb - bendReleaseBend
\n/ - tremolo bar dip
\n - tremolo bar dive
-/n - tremolo bar Release up
/n\ - tremolo bar inverted dip
/n - tremolo bar return
-\n - tremolo bar Release down
S - shift slide
s - legato slide
/ -  slide into from below or out of upwards
\ -  slide into from above or out of downwards
~ - vibrato
W - wide vibrato
tr - trill
TP - tremolo picking
T - tapping
S - slap
P - pop
< - fade in
^ - brush up
v - brush down
Suggest correction
Creating personal tab
Creating personal tab
You can edit any tab online and save it as your Personal.

You can edit, replace or remove any tab part or add personal notes – all changes will be seen only by you.

Personal tabs can be accessed anytime from any device, even offline.
Learn more »
Give kudos to tab author, rate the tab!
1 2 3 4 5
comments
print report bad tab
guest
You may want to rate the tab now too:
select rating
Wanna post a correction for this tab? Suggest correction