Oops, an error
Loading. Please wait.

Bang Bang Youre Dead bass

version 4
version 4

Whole song

Interactive

6,175 views 1 this week
no commentswrite comment
1 2 3 4 5
x 4
add to favorites
×
Save as Personal and add changes to this tab that will be seen only by you. Learn more ›
×
You can save this tab as Personal to edit and correct it or add notes. All changes will be seen only by you. Learn more »
launch autoscroll
font size
0
reset
guitar tuner
edit
Autoscroll
slow
fast
+/-
esc
set tempo
stop
Difficulty
I'm not sure about this...but this is what i got from watching didz and from listening
it...i'm not at all sure on the pre chorus i think thats wrong...please rate.
stripes x

Intro

G|-------------------------------------------------------------|
D|--------------------------------------8----------------------|
A|-8-8-8-8-0-0-0-0-5-3---5-3-------------8-5-7-8-8-8-8-8-8-5-7-|
E|--------------------6-5---6-5--6-6-6-6-----------------------|

Verse

G|---------------------------------------------------------------|
D|---------------------------------------8-8-8-8-----------------|
A|-8-8-8-8-0-0-0-0-5-3---5-3---------------------8-8-8-8-8-8-5-7-|
E|--------------------6-5---6-5--6-6-6-6-------------------------|

G|------------------------------------------|
D|------------------------------------------|
A|-8-8-8-8-0-0-0-0-5-3---5-3--------------3-|
E|--------------------6-5---6-5--6----------|

Pre - Chorus (what did you expect?)

G|---------------------------------------------------------------|
D|---------------------------------------------------------------|
A|-5-3-3-3-5-3--5-3-3-5-5-5-6-5--5-3-3-3-5-3--5-3--3-3-3-3-3-3-3-|
E|----5-5----------5----------------5-5-----------5--------------|

Chorus

G|--------------------------------------------|
D|--------------------------------------------|
A|-8-8-8-8-0-0-0-0-5-7-8-12-13-13-13-12-12-10-|
E|--------------------------------------------|

G|----------------------------------------------------------|
D|----------------------------------------------------------|
A|-8-8-8-8-0-0-0-0-5-7-8-12-13-13-13-12-12-10-8-5-8-8-8-8-8-|
E|-----------------------------------------------5----------|

Verse


G|---------------------------------------------------------------|
D|---------------------------------------8-8-8-8-----------------|
A|-8-8-8-8-0-0-0-0-5-3---5-3---------------------8-8-8-8-8-8-5-7-|
E|--------------------6-5---6-5--6-6-6-6-------------------------|

G|------------------------------------------|
D|------------------------------------------|
A|-8-8-8-8-0-0-0-0-5-3---5-3--------------3-|
E|--------------------6-5---6-5--6----------|


Solo

G|------------------------------------------------------------------|
D|------7-5----------7-5----------7-5-------------------------------|
A|-5-3-3---8-7--5-3-3---8-7--5-3-3---8-7--5-3-3-5-5-5-6-5-5-5-5-6-5-|
E|----5------------5------------5------------5----------------------|

Chorus

G|--------------------------------------------|
D|--------------------------------------------|
A|-8-8-8-8-0-0-0-0-5-7-8-12-13-13-13-12-12-10-|
E|--------------------------------------------|

G|----------------------------------------------------------|
D|----------------------------------------------------------|
A|-8-8-8-8-0-0-0-0-5-7-8-12-13-13-13-12-12-10-8-5-8-8-8-8-8-|
E|-----------------------------------------------5----------|

Bridge (solo thing)

G|-------------------------------------------------------------|
D|--------------------------------------8----------------------|
A|-8-8-8-8-0-0-0-0-5-3---5-3-------------8-5-7-8-8-8-8-8-8-5-7-|
E|--------------------6-5---6-5--6-6-6-6-----------------------|

Pre - Chorus

G|--------------------------------------------------------------|
D|--------------------------------------------------------------|
A|-5-3-3-3-5-3--5-3-3-5-5-5-6-5--5-3-3-3-5-3--5-3-3-3-3-3-3-3-3-|
E|----5-5----------5----------------5-5----------5--------------|

Chorus

G|--------------------------------------------|
D|--------------------------------------------|
A|-8-8-8-8-0-0-0-0-5-7-8-12-13-13-13-12-12-10-|
E|--------------------------------------------|

G|------------------------------------------------|
D|------------------------------------------------|
A|-8-8-8-8-0-0-0-0-5-7-8-12-13-13-13-12-12-10-8-5-|
E|---------------------------------------------5--|

Outro

G|--------------------------|
D|--------------------------|
A|-5-7-8-10-8-8-7-5-1-3-5-3-|
E|--------------------------|
Suggest correction
Creating personal tab
Creating personal tab
You can edit any tab online and save it as your Personal.

You can edit, replace or remove any tab part or add personal notes – all changes will be seen only by you.

Personal tabs can be accessed anytime from any device, even offline.
Learn more »
comments
print report bad tab
guest
Wanna post a correction for this tab? Suggest correction