Oops, an error
Loading. Please wait.

Bang Bang Youre Dead tab

version 5
version 5

Whole song

Interactive

5,222 views 9 this week
1 commentread comment
1 2 3 4 5
x 5
add to favorites
×
Save as Personal and add changes to this tab that will be seen only by you. Learn more ›
×
You can save this tab as Personal to edit and correct it or add notes. All changes will be seen only by you. Learn more »
launch autoscroll
font size
0
reset
how to read this tab
guitar tuner
edit
Autoscroll
slow
fast
+/-
esc
set tempo
stop
Author
Difficulty
Bang,Bang You're Dead
       Barat
Waterloo To Anywhere
         #3

Lyrics are on Stan's bars to make it easier to follow.

Not entirely sure on Didz's bass parts but quite sure on
Stan and Carl's parts.

Guitar 1: Carl Barat (Carl) - Gibson Melody Maker
Guitar 2: Anthony Rossomando (Stan) - Gibson Es 355
Bass 1: Didz Hammond (Didz) - ???

* = Carl, Stan, and Didz start playing together

Intro:

Stan - Trumpet:

e----8------8--9--9--10-------------|
B-10----10----------------10--8-----|
G--------------------------------10-|
D-----------------------------------|
A-----------------------------------|
E-----------------------------------|

e---------------------------------------------|
B--------9---9-9--8-------9--8--------10-8-10-|
G-7--10--------------10--------6-6--5---------|
D---------------------------------------------|
A---------------------------------------------|
E---------------------------------------------|

Stan:
*
e-5--5--5--5--5--5--5-5-5-5-5-5-|
B-6--6--6--6--6--6--6-6-6-6-6-6-|
G-7--7--7--7--7--7--7-7-7-7-7-7-|
D-7--7--7--7--7--7--7-7-7-7-7-7-|
A-5--5--5--5--5--5--5-5-5-5-5-5-|
E-------------------------------|

e-5--5--5--5---5--5-5-5--3--3-3-3-|
B-6--6--6--6---6--6-6-6--5--5-5-5-|
G-7--7--7--7---7--7-7-7--5--5-5-5-|
D-7--7--7--7---7--7-7-7--5--5-5-5-|
A-5--5--5--5---5--5-5-5--3--3-3-3-|
E---------------------------------|

e-1--1--1--1--5--5--5--5--5--5--5--5--5--5--5--5-|
B-1--1--1--1--5--5--5--5--6--6--6--6--6--6--6--6-|
G-2--2--2--2--6--6--6--6--7--7--7--7--7--7--7--7-|
D-3--3--3--3--7--7--7--7--7--7--7--7--7--7--7--7-|
A-3--3--3--3--7--7--7--7--5--5--5--5--5--5--5--5-|
E-1--1--1--1--5--5--5--5-------------------------|

e-6--6--6--6--6--6--6--6--1--1--1--1--1--1--1--1-|
B-6--6--6--6--6--6--6--6--1--1--1--1--1--1--1--1-|
G-7--7--7--7--6--6--6--6--2--2--2--2--2--2--2--2-|
D-8--8--8--8--8--8--8--8--3--3--3--3--3--3--3--3-|
A-8--8--8--8--8--8--8--8--3--3--3--3--3--3--3--3-|
E-6--6--6--6--6--6--6--6--1--1--1--1--1--1--1--1-|

Carl:
*
e-------13--------13------------10-------------------|
B-------13--------13------------10-------------------|
G-13-13-----13-13-----13--10-10----10-12-10-------10-|
D-------------------------------------------10h12----|
A----------------------------------------------------|
E----------------------------------------------------|

e-----------------------------------------------------|
B-----------------------------------------------------|
G-10--------10-------10-------10--12br12-10--12h10----|
D-----10h12----10h12----10h12----------------------12-|
A-----------------------------------------------------|
E-----------------------------------------------------|

e-----------------------------------------------------|
B-----------------------------------------------------|
G-12br12h10----12br12h10----12br12h10----12br12h10----|
D-----------12-----------12-----------12-----------12-|
A-----------------------------------------------------|
E-----------------------------------------------------|

e-13-13-13-12-12-12-10-10-10--------------------------|
B----------------------------13-13-13-11---10-10---10-|
G---------------------------------------------12b-r12-|
D-----------------------------------------------------|
A-----------------------------------------------------|
E-----------------------------------------------------|

Didz:
*
G------------------------------------------------|
D------------------------------------------------|
A-8--8--8--8--0--0--0--0--5--3--------5--3-------|
E-------------------------------6--5--------6--5-|

G------------------------------------------------|
D-------------8----------------------------------|
A----------------8--5--7--8--8--8--8--8--8--8--8-|
E-6--6--6--6-------------------------------------|

Verse 1:

Stan:
*     I knew...           right...
e-1--1--1--1--5--5--5--5--5--5--5--5--5--5--5--5-|
B-1--1--1--1--5--5--5--5--6--6--6--6--6--6--6--6-|
G-2--2--2--2--6--6--6--6--7--7--7--7--7--7--7--7-|
D-3--3--3--3--7--7--7--7--7--7--7--7--7--7--7--7-|
A-3--3--3--3--7--7--7--7--5--5--5--5--5--5--5--5-|
E-1--1--1--1--5--5--5--5-------------------------|
  seeds of...             grew in...  *c
e-6--6--6--6--6--6--6--6--1--1--1--1--1--1--1--1-|
B-6--6--6--6--6--6--6--6--1--1--1--1--1--1--1--1-|
G-7--7--7--7--6--6--6--6--2--2--2--2--2--2--2--2-|
D-8--8--8--8--8--8--8--8--3--3--3--3--3--3--3--3-|
A-8--8--8--8--8--8--8--8--3--3--3--3--3--3--3--3-|
E-6--6--6--6--6--6--6--6--1--1--1--1--1--1--1--1-|

Carl:
*C
e-------------------------------------xxxxxxxxxx-|
B-------------------------------------xxxxxxxxxx-|
G-------------------------------------xxxxxxxxxx-|
D-------------------------------------xxxxxxxxxx-|
A-------------------------------------xxxxxxxxxx-|
E-------------------------------------xxxxxxxxxx-|

Didz:
*
G------------------------------------------------|
D------------------------------------------------|
A-8--8--8--8--0--0--0--0--5--3--------5--3-------|
E-------------------------------6--5--------6--5-|

G------------------------------------------------|
D-------------8----------------------------------|
A----------------8--5--7--8--8--8--8--8--8--8--8-|
E-6--6--6--6-------------------------------------|

Stan:
*     Self...             formed...
e-1--1--1--1--5--5--5--5--5--5--5--5--5--5--5--5-|
B-1--1--1--1--5--5--5--5--6--6--6--6--6--6--6--6-|
G-2--2--2--2--6--6--6--6--7--7--7--7--7--7--7--7-|
D-3--3--3--3--7--7--7--7--7--7--7--7--7--7--7--7-|
A-3--3--3--3--7--7--7--7--5--5--5--5--5--5--5--5-|
E-1--1--1--1--5--5--5--5-------------------------|
 Gave...     turned...
e-6-----------6-|
B-6-----------6-|
G-7-----------6-|
D-8-----------8-|
A-8-----------8-|
E-6-----------6-|

Carl:
*
e-1--1--1--1--5--5--5--5--5--5--5--5--5--5--5--5-|
B-1--1--1--1--5--5--5--5--6--6--6--6--6--6--6--6-|
G-2--2--2--2--6--6--6--6--7--7--7--7--7--7--7--7-|
D-3--3--3--3--7--7--7--7--7--7--7--7--7--7--7--7-|
A-3--3--3--3--7--7--7--7--5--5--5--5--5--5--5--5-|
E-1--1--1--1--5--5--5--5-------------------------|

e-6-----------6-|
B-6-----------6-|
G-7-----------6-|
D-8-----------8-|
A-8-----------8-|
E-6-----------6-|

Didz:
*
G------------------------------------------------|
D------------------------------------------------|
A-8--8--8--8--0--0--0--0--5--3--------5--3-------|
E-------------------------------6--5--------6--5-|

G---------------|
D---------------|
A---------------|
E-6-----------6-|

Pre-Chorus:

Stan:
*      Ohh...
e-5--5--5--5--5--5--5--5--5--5--5--5--5--5--5--6--5-|
B-6--6--6--6--5--5--5--5--6--6--6--6--5--5--5--6--5-|
G-7--7--7--7--6--6--6--6--7--7--7--7--6--6--6--7--6-|
D-7--7--7--7--7--7--7--7--7--7--7--7--7--7--7--8--7-|
A-5--5--5--5--7--7--7--7--5--5--5--5--7--7--7--8--7-|
E-------------5--5--5--5--------------5--5--5--6--5-|
       Ohh...                          lay...
e-5--5--5--5--5--5--5--5--5--5--5--5---3----3----3-|
B-6--6--6--6--5--5--5--5--6--6--6--6---5----5----5-|
G-7--7--7--7--6--6--6--6--7--7--7--7---5----5----5-|
D-7--7--7--7--7--7--7--7--7--7--7--7---5----5----5-|
A-5--5--5--5--7--7--7--7--5--5--5--5---3----3----3-|
E-------------5--5--5--5---------------------------|
  upon...
e-3---3--3--3-3-3-3-3-3-|
B-5---5--5--5-5-5-5-5-5-|
G-5---5--5--5-5-5-5-5-5-|
A-5---5--5--5-5-5-5-5-5-|
D-3---3--3--3-3-3-3-3-3-|
E-----------------------|

Carl:
*
e-5--5--5--5--5--5--5--5--5--5--5--5--5--5--5--6--5-|
B-6--6--6--6--5--5--5--5--6--6--6--6--5--5--5--6--5-|
G-7--7--7--7--6--6--6--6--7--7--7--7--6--6--6--7--6-|
D-7--7--7--7--7--7--7--7--7--7--7--7--7--7--7--8--7-|
A-5--5--5--5--7--7--7--7--5--5--5--5--7--7--7--8--7-|
E-------------5--5--5--5--------------5--5--5--6--5-|

e-5--5--5--5--5--5--5--5--5--5--5--5---3----3----3-|
B-6--6--6--6--5--5--5--5--6--6--6--6---5----5----5-|
G-7--7--7--7--6--6--6--6--7--7--7--7---5----5----5-|
D-7--7--7--7--7--7--7--7--7--7--7--7---5----5----5-|
A-5--5--5--5--7--7--7--7--5--5--5--5---3----3----3-|
E-------------5--5--5--5---------------------------|

e-3---3--3--3-3-3-3-3-3-|
B-5---5--5--5-5-5-5-5-5-|
G-5---5--5--5-5-5-5-5-5-|
A-5---5--5--5-5-5-5-5-5-|
D-3---3--3--3-3-3-3-3-3-|
E-----------------------|

Didz:
*
G---------------------------------------------------|
D---------------------------------------------------|
A-5--3-----3--------3-----5--3-----3----------------|
E-------5-----3--5-----5--------5-----5--5--5--6--5-|

G--------------------------------------------------|
D--------------------------------------------------|
A-5--3-----3--------3-----5--3-----3---------------|
E-------5-----3--5-----5--------5------5----5----5-|

G-----------------------|
D-----------------------|
A-----------------------|
E-5---5--5--5-5-5-5-5-5-|

Chorus:

Stan:
*         bang...         dead...     oh...
e-1--1--1--1--5--5--5--5--5--5--5--5--6--6---6--5--3-|
B-1--1--1--1--5--5--5--5--6--6--6--6--6--6---6--5--3-|
G-2--2--2--2--6--6--6--6--7--7--7--7--7--7---7--6--4-|
D-3--3--3--3--7--7--7--7--7--7--7--7--8--8---8--7--5-|
A-3--3--3--3--7--7--7--7--5--5--5--5--8--8---8--7--5-|
E-1--1--1--1--5--5--5--5--------------6--6---6--5--3-|
         bang...          dead...     put...
e-1--1--1--1--5--5--5--5--5--5--5--5--6--6---6--5--3-|
B-1--1--1--1--5--5--5--5--6--6--6--6--6--6---6--5--3-|
G-2--2--2--2--6--6--6--6--7--7--7--7--7--7---7--6--4-|
D-3--3--3--3--7--7--7--7--7--7--7--7--8--8---8--7--5-|
A-3--3--3--3--7--7--7--7--5--5--5--5--8--8---8--7--5-|
E-1--1--1--1--5--5--5--5--------------6--6---6--5--3-|
      bang    bang...     dead...
e-1-----------5-----------5--5--5--5--5--5-5-5--3--3-3-3-|
B-1-----------5-----------6--6--6--6--6--6-6-6--5--5-5-5-|
G-2-----------6-----------7--7--7--7--7--7-7-7--5--5-5-5-|
D-3-----------7-----------7--7--7--7--7--7-7-7--5--5-5-5-|
A-3-----------7-----------5--5--5--5--5--5-5-5--3--3-3-3-|
E-1-----------5------------------------------------------|

Carl:
*
e-1--1--1--1--5--5--5--5--5--5--5--5--6--6---6--5--3-|
B-1--1--1--1--5--5--5--5--6--6--6--6--6--6---6--5--3-|
G-2--2--2--2--6--6--6--6--7--7--7--7--7--7---7--6--4-|
D-3--3--3--3--7--7--7--7--7--7--7--7--8--8---8--7--5-|
A-3--3--3--3--7--7--7--7--5--5--5--5--8--8---8--7--5-|
E-1--1--1--1--5--5--5--5--------------6--6---6--5--3-|

e-1--1--1--1--5--5--5--5--5--5--5--5--6--6---6--5--3-|
B-1--1--1--1--5--5--5--5--6--6--6--6--6--6---6--5--3-|
G-2--2--2--2--6--6--6--6--7--7--7--7--7--7---7--6--4-|
D-3--3--3--3--7--7--7--7--7--7--7--7--8--8---8--7--5-|
A-3--3--3--3--7--7--7--7--5--5--5--5--8--8---8--7--5-|
E-1--1--1--1--5--5--5--5--------------6--6---6--5--3-|

e-1-----------5-----------5--5--5--5-|
B-1-----------5-----------6--6--6--6-|
G-2-----------6-----------7--7--7--7-|
D-3-----------7-----------7--7--7--7-|
A-3-----------7-----------5--5--5--5-|
E-1-----------5----------------------|

Didz:
*
G----------------------------------------------------|
D----------------------------------------------------|
A-8--8--8--8--0--0--0--0--5--7--8--12-13-13-13-12-10-|
E----------------------------------------------------|

G----------------------------------------------------|
D----------------------------------------------------|
A-8--8--8--8--0--0--0--0--5--7--8--12-13-13-13-12-10-|
E----------------------------------------------------|

G------------------------------------|
D------------------------------------|
A-8-----------5-----------8--8--8--8-|
E---------------5--------------------|

Verse 2:

Stan:
*     I knew...           right...
e-1--1--1--1--5--5--5--5--5--5--5--5--5--5--5--5-|
B-1--1--1--1--5--5--5--5--6--6--6--6--6--6--6--6-|
G-2--2--2--2--6--6--6--6--7--7--7--7--7--7--7--7-|
D-3--3--3--3--7--7--7--7--7--7--7--7--7--7--7--7-|
A-3--3--3--3--7--7--7--7--5--5--5--5--5--5--5--5-|
E-1--1--1--1--5--5--5--5-------------------------|
  seeds of...             grew in... *c
e-6--6--6--6--6--6--6--6--1--1--1--1--1--1--1--1-|
B-6--6--6--6--6--6--6--6--1--1--1--1--1--1--1--1-|
G-7--7--7--7--6--6--6--6--2--2--2--2--2--2--2--2-|
D-8--8--8--8--8--8--8--8--3--3--3--3--3--3--3--3-|
A-8--8--8--8--8--8--8--8--3--3--3--3--3--3--3--3-|
E-6--6--6--6--6--6--6--6--1--1--1--1--1--1--1--1-|

Carl:
*C
e-------------------------------------xxxxxxxxxx-|
B-------------------------------------xxxxxxxxxx-|
G-------------------------------------xxxxxxxxxx-|
D-------------------------------------xxxxxxxxxx-|
A-------------------------------------xxxxxxxxxx-|
E-------------------------------------xxxxxxxxxx-|

Didz:
*
G------------------------------------------------|
D------------------------------------------------|
A-8--8--8--8--0--0--0--0--5--3--------5--3-------|
E-------------------------------6--5--------6--5-|

G------------------------------------------------|
D-------------8----------------------------------|
A----------------8--5--7--8--8--8--8--8--8--8--8-|
E-6--6--6--6-------------------------------------|

Stan:
* An illusion...          oh it's...
e-1--1--1--1--5--5--5--5--5--5--5--5--5--5--5--5-|
B-1--1--1--1--5--5--5--5--6--6--6--6--6--6--6--6-|
G-2--2--2--2--6--6--6--6--7--7--7--7--7--7--7--7-|
D-3--3--3--3--7--7--7--7--7--7--7--7--7--7--7--7-|
A-3--3--3--3--7--7--7--7--5--5--5--5--5--5--5--5-|
E-1--1--1--1--5--5--5--5-------------------------|
  put it...   oh wont...
e-6-----------6-|
B-6-----------6-|
G-7-----------6-|
D-8-----------8-|
A-8-----------8-|
E-6-----------6-|

Carl:
*
e-1--1--1--1--5--5--5--5--5--5--5--5--5--5--5--5-|
B-1--1--1--1--5--5--5--5--6--6--6--6--6--6--6--6-|
G-2--2--2--2--6--6--6--6--7--7--7--7--7--7--7--7-|
D-3--3--3--3--7--7--7--7--7--7--7--7--7--7--7--7-|
A-3--3--3--3--7--7--7--7--5--5--5--5--5--5--5--5-|
E-1--1--1--1--5--5--5--5-------------------------|

e-6-----------6-|
B-6-----------6-|
G-7-----------6-|
D-8-----------8-|
A-8-----------8-|
E-6-----------6-|

Didz:
*
G------------------------------------------------|
D------------------------------------------------|
A-8--8--8--8--0--0--0--0--5--3--------5--3-------|
E-------------------------------6--5--------6--5-|

G---------------|
D---------------|
A---------------|
E-6-----------6-|

Bridge:

Stan:
*
e------5------5-------5--5--5--6--5-|
B------6------6-------5--5--5--6--5-|
G------7------7--7----6--6--6--7--6-|
D-7------7-------7----7--7--7--8--7-|
A-5------5-------5----7--7--7--8--7-|
E---------------------5--5--5--6--5-|

e------5------5-------5--5--5--6--5-|
B------6------6-------5--5--5--6--5-|
G------7------7--7----6--6--6--7--6-|
D-7------7-------7----7--7--7--8--7-|
A-5------5-------5----7--7--7--8--7-|
E---------------------5--5--5--6--5-|

e------5------5-------5--5--5--6--5-|
B------6------6-------5--5--5--6--5-|
G------7------7--7----6--6--6--7--6-|
D-7------7-------7----7--7--7--8--7-|
A-5------5-------5----7--7--7--8--7-|
E---------------------5--5--5--6--5-|

e------5------5-------5--5--5--6--5-|
B------6------6-------5--5--5--6--5-|
G------7------7--7----6--6--6--7--6-|
D-7------7-------7----7--7--7--8--7-|
A-5------5-------5----7--7--7--8--7-|
E---------------------5--5--5--6--5-|

Carl:
*
e-----10-----10--10---10-10-10-9-9-9-8-8-8-7-7-7-|
B------------------------------------------------|
D-7------7---------------------------------------|
A------------------------------------------------|
E------------------------------------------------|

e-----10-----10--10---10-10-10-9-9-9-8-8-8-7-7-7-|
B------------------------------------------------|
D-7------7---------------------------------------|
A------------------------------------------------|
E------------------------------------------------|

e-----10-----10--10---10-10-10-9-9-9-8-8-8-7-7-7-|
B------------------------------------------------|
D-7------7---------------------------------------|
A------------------------------------------------|
E------------------------------------------------|

e-----10-----10--10-----------------5--5---5--6--5-|
B-----------------------------------5--5---5--6--5-|
G-----------------------------------6--6---6--7--6-|
D-7------7----------7--7---7--8--7--7--7---7--8--7-|
A-----------------------------------7--7---7--8--7-|
E-----------------------------------5--5---5--6--5-|

Didz:
*
G-----------------------------------------------|
D-------------7--5-------------------7--5-------|
A-5--3-----3--------8--7--5--3----3--------8--7-|
E-------5-----------------------5---------------|

G-----------------------------------------------|
D-------------7--5-------------------7--5-------|
A-5--3-----3--------8--7--5--3----3--------8--7-|
E-------5-----------------------5---------------|

G-----------------------------------------------|
D-------------7--5-------------------7--5-------|
A-5--3-----3--------8--7--5--3----3--------8--7-|
E-------5-----------------------5---------------|

G-----------------------------------------------|
D-----------------------------------------------|
A-5--3-----3------------------------------------|
E-------5-------5--5---5--6--5---5--5---5--6--5-|

Chorus:

Stan:
*        Bang...          dead...     always...
e-1--1--1--1--5--5--5--5--5--5--5--5--6--6---6--5--3-|
B-1--1--1--1--5--5--5--5--6--6--6--6--6--6---6--5--3-|
G-2--2--2--2--6--6--6--6--7--7--7--7--7--7---7--6--4-|
D-3--3--3--3--7--7--7--7--7--7--7--7--8--8---8--7--5-|
A-3--3--3--3--7--7--7--7--5--5--5--5--8--8---8--7--5-|
E-1--1--1--1--5--5--5--5--------------6--6---6--5--3-|
         Bang...          dead...     put...
e-1--1--1--1--5--5--5--5--5--5--5--5--6--6---6--5--3-|
B-1--1--1--1--5--5--5--5--6--6--6--6--6--6---6--5--3-|
G-2--2--2--2--6--6--6--6--7--7--7--7--7--7---7--6--4-|
D-3--3--3--3--7--7--7--7--7--7--7--7--8--8---8--7--5-|
A-3--3--3--3--7--7--7--7--5--5--5--5--8--8---8--7--5-|
E-1--1--1--1--5--5--5--5--------------6--6---6--5--3-|
     bang     bang...     dead...
e-1-----------5-----------5--5--5--5--5--5-5-5--3--3-3-3-|
B-1-----------5-----------6--6--6--6--6--6-6-6--5--5-5-5-|
G-2-----------6-----------7--7--7--7--7--7-7-7--5--5-5-5-|
D-3-----------7-----------7--7--7--7--7--7-7-7--5--5-5-5-|
A-3-----------7-----------5--5--5--5--5--5-5-5--3--3-3-3-|
E-1-----------5------------------------------------------|

Carl:
*
e-1--1--1--1--5--5--5--5--5--5--5--5--6--6---6--5--3-|
B-1--1--1--1--5--5--5--5--6--6--6--6--6--6---6--5--3-|
G-2--2--2--2--6--6--6--6--7--7--7--7--7--7---7--6--4-|
D-3--3--3--3--7--7--7--7--7--7--7--7--8--8---8--7--5-|
A-3--3--3--3--7--7--7--7--5--5--5--5--8--8---8--7--5-|
E-1--1--1--1--5--5--5--5--------------6--6---6--5--3-|

e-1--1--1--1--5--5--5--5--5--5--5--5--6--6---6--5--3-|
B-1--1--1--1--5--5--5--5--6--6--6--6--6--6---6--5--3-|
G-2--2--2--2--6--6--6--6--7--7--7--7--7--7---7--6--4-|
D-3--3--3--3--7--7--7--7--7--7--7--7--8--8---8--7--5-|
A-3--3--3--3--7--7--7--7--5--5--5--5--8--8---8--7--5-|
E-1--1--1--1--5--5--5--5--------------6--6---6--5--3-|

e-1-----------5-----------5--5--5--5-|
B-1-----------5-----------6--6--6--6-|
G-2-----------6-----------7--7--7--7-|
D-3-----------7-----------7--7--7--7-|
A-3-----------7-----------5--5--5--5-|
E-1-----------5----------------------|

Didz:
*
G----------------------------------------------------|
D----------------------------------------------------|
A-8--8--8--8--0--0--0--0--5--7--8--12-13-13-13-12-10-|
E----------------------------------------------------|

G----------------------------------------------------|
D----------------------------------------------------|
A-8--8--8--8--0--0--0--0--5--7--8--12-13-13-13-12-10-|
E----------------------------------------------------|

G------------------------------------|
D------------------------------------|
A-8-----------5-----------8--8--8--8-|
E---------------5--------------------|

Solo:

Stan:
*
e-1--1--1--1--5--5--5--5--5--5--5--5--5--5--5--5-|
B-1--1--1--1--5--5--5--5--6--6--6--6--6--6--6--6-|
G-2--2--2--2--6--6--6--6--7--7--7--7--7--7--7--7-|
D-3--3--3--3--7--7--7--7--7--7--7--7--7--7--7--7-|
A-3--3--3--3--7--7--7--7--5--5--5--5--5--5--5--5-|
E-1--1--1--1--5--5--5--5-------------------------|

e-6--6--6--6--6--6--6--6--1--1--1--1--1--1--1--1-|
B-6--6--6--6--6--6--6--6--1--1--1--1--1--1--1--1-|
G-7--7--7--7--6--6--6--6--2--2--2--2--2--2--2--2-|
D-8--8--8--8--8--8--8--8--3--3--3--3--3--3--3--3-|
A-8--8--8--8--8--8--8--8--3--3--3--3--3--3--3--3-|
E-6--6--6--6--6--6--6--6--1--1--1--1--1--1--1--1-|

Carl:
*
e-------13--------13-----------10---------------------|
B-------13--------13-----------10---------------------|
G-13-13-----13-13----13--10-10----10--12--10-------10-|
D--------------------------------------------10h12----|
A-----------------------------------------------------|
E-----------------------------------------------------|

e---------------------------------------------------------|
B---------------------------------------10-------------10-|
G-12b-b-b-b-b-b-b-b-b-br-10-10-10-12-13----13-12-10-13----|
D---------------------------------------------------------|
A---------------------------------------------------------|
E---------------------------------------------------------|

e-13-13-13-12-12-12-10-10-10--------------------------13\-|
B----------------------------13-13-13-11---10--10--10-----|
G----------------------------------------------12br12-----|
D---------------------------------------------------------|
A---------------------------------------------------------|
E---------------------------------------------------------|

Didz:
*
G------------------------------------------------|
D------------------------------------------------|
A-8--8--8--8--0--0--0--0--5--3--------5--3-------|
E-------------------------------6--5--------6--5-|

G------------------------------------------------|
D-------------8----------------------------------|
A----------------8--5--7--8--8--8--8--8--8--8--8-|
E-6--6--6--6-------------------------------------|

Pre-Chorus:

Stan:
*     oh what...
e-5--5--5--5--5--5--5--5--5--5--5--5--5--5--5--6--5-|
B-6--6--6--6--5--5--5--5--6--6--6--6--5--5--5--6--5-|
G-7--7--7--7--6--6--6--6--7--7--7--7--6--6--6--7--6-|
D-7--7--7--7--7--7--7--7--7--7--7--7--7--7--7--8--7-|
A-5--5--5--5--7--7--7--7--5--5--5--5--7--7--7--8--7-|
E-------------5--5--5--5--------------5--5--5--6--5-|
      oh tell...                       to lay...
e-5--5--5--5--5--5--5--5--5--5--5--5---3----3----3-|
B-6--6--6--6--5--5--5--5--6--6--6--6---5----5----5-|
G-7--7--7--7--6--6--6--6--7--7--7--7---5----5----5-|
D-7--7--7--7--7--7--7--7--7--7--7--7---5----5----5-|
A-5--5--5--5--7--7--7--7--5--5--5--5---3----3----3-|
E-------------5--5--5--5---------------------------|
  upon my...
e-3---3--3--3-3-3-3-3-3-|
B-5---5--5--5-5-5-5-5-5-|
G-5---5--5--5-5-5-5-5-5-|
A-5---5--5--5-5-5-5-5-5-|
D-3---3--3--3-3-3-3-3-3-|
E-----------------------|

Carl:
*
e-5--5--5--5--5--5--5--5--5--5--5--5--5--5--5--6--5-|
B-6--6--6--6--5--5--5--5--6--6--6--6--5--5--5--6--5-|
G-7--7--7--7--6--6--6--6--7--7--7--7--6--6--6--7--6-|
D-7--7--7--7--7--7--7--7--7--7--7--7--7--7--7--8--7-|
A-5--5--5--5--7--7--7--7--5--5--5--5--7--7--7--8--7-|
E-------------5--5--5--5--------------5--5--5--6--5-|

e-5--5--5--5--5--5--5--5--5--5--5--5---3----3----3-|
B-6--6--6--6--5--5--5--5--6--6--6--6---5----5----5-|
G-7--7--7--7--6--6--6--6--7--7--7--7---5----5----5-|
D-7--7--7--7--7--7--7--7--7--7--7--7---5----5----5-|
A-5--5--5--5--7--7--7--7--5--5--5--5---3----3----3-|
E-------------5--5--5--5---------------------------|

e-3---3--3--3-3-3-3-3-3-|
B-5---5--5--5-5-5-5-5-5-|
G-5---5--5--5-5-5-5-5-5-|
A-5---5--5--5-5-5-5-5-5-|
D-3---3--3--3-3-3-3-3-3-|
E-----------------------|

Didz:
*
G---------------------------------------------------|
D---------------------------------------------------|
A-5--3-----3--------3-----5--3-----3----------------|
E-------5-----3--5-----5--------5-----5--5--5--6--5-|

G--------------------------------------------------|
D--------------------------------------------------|
A-5--3-----3--------3-----5--3-----3---------------|
E-------5-----3--5-----5--------5------5----5----5-|

G-----------------------|
D-----------------------|
A-----------------------|
E-5---5--5--5-5-5-5-5-5-|

Chorus:

Stan:
*        Bang...          dead...     always...
e-1--1--1--1--5--5--5--5--5--5--5--5--6--6---6--5--3-|
B-1--1--1--1--5--5--5--5--6--6--6--6--6--6---6--5--3-|
G-2--2--2--2--6--6--6--6--7--7--7--7--7--7---7--6--4-|
D-3--3--3--3--7--7--7--7--7--7--7--7--8--8---8--7--5-|
A-3--3--3--3--7--7--7--7--5--5--5--5--8--8---8--7--5-|
E-1--1--1--1--5--5--5--5--------------6--6---6--5--3-|
         Bang...          dead...     put all...
e-1--1--1--1--5--5--5--5--5--5--5--5--6--6---6--5--3-|
B-1--1--1--1--5--5--5--5--6--6--6--6--6--6---6--5--3-|
G-2--2--2--2--6--6--6--6--7--7--7--7--7--7---7--6--4-|
D-3--3--3--3--7--7--7--7--7--7--7--7--8--8---8--7--5-|
A-3--3--3--3--7--7--7--7--5--5--5--5--8--8---8--7--5-|
E-1--1--1--1--5--5--5--5--------------6--6---6--5--3-|
      Bang    bang        dead        bang
e-1-----------5-----------5-----------6-|
B-1-----------5-----------6-----------6-|
G-2-----------6-----------7-----------7-|
D-3-----------7-----------7-----------8-|
A-3-----------7-----------5-----------8-|
E-1-----------5-----------------------6-|
  bang   Bang bang        dead  oh... dead.
e-1-----------5-----------5-----1-----1-|
B-1-----------5-----------6-----3-----1-|
G-2-----------6-----------7-----3-----2-|
D-3-----------7-----------7-----3-----3-|
A-3-----------7-----------5-----1-----3-|
E-1-----------5-----------------------1-|

Carl:
*
e-1--1--1--1--5--5--5--5--5--5--5--5--6--6---6--5--3-|
B-1--1--1--1--5--5--5--5--6--6--6--6--6--6---6--5--3-|
G-2--2--2--2--6--6--6--6--7--7--7--7--7--7---7--6--4-|
D-3--3--3--3--7--7--7--7--7--7--7--7--8--8---8--7--5-|
A-3--3--3--3--7--7--7--7--5--5--5--5--8--8---8--7--5-|
E-1--1--1--1--5--5--5--5--------------6--6---6--5--3-|

e-1--1--1--1--5--5--5--5--5--5--5--5--6--6---6--5--3-|
B-1--1--1--1--5--5--5--5--6--6--6--6--6--6---6--5--3-|
G-2--2--2--2--6--6--6--6--7--7--7--7--7--7---7--6--4-|
D-3--3--3--3--7--7--7--7--7--7--7--7--8--8---8--7--5-|
A-3--3--3--3--7--7--7--7--5--5--5--5--8--8---8--7--5-|
E-1--1--1--1--5--5--5--5--------------6--6---6--5--3-|

e-1-----------5-----------5-----------6-|
B-1-----------5-----------6-----------6-|
G-2-----------6-----------7-----------7-|
D-3-----------7-----------7-----------8-|
A-3-----------7-----------5-----------8-|
E-1-----------5-----------------------6-|

e-1-----------5-----------5-----1-----1-|
B-1-----------5-----------6-----3-----1-|
G-2-----------6-----------7-----3-----2-|
D-3-----------7-----------7-----3-----3-|
A-3-----------7-----------5-----1-----3-|
E-1-----------5-----------------------1-|

Didz:
*
G----------------------------------------------------|
D----------------------------------------------------|
A-8--8--8--8--0--0--0--0--5--7--8--12-13-13-13-12-10-|
E----------------------------------------------------|

G----------------------------------------------------|
D----------------------------------------------------|
A-8--8--8--8--0--0--0--0--5--7--8--12-13-13-13-12-10-|
E----------------------------------------------------|

G---------------------------------------|
D---------------------------------------|
A-8-----------5-----------8-------------|
E---------------5---------------------6-|

G---------------------------------------|
D---------------------------------------|
A-8-----------5-----------8-----------8-|
E---------------5---------------6-------|

I knew all along,
That I was right at the start,
'bout the seeds of the weeds,
That grew in your heart.
Self satisfaction for the factions,
Who formed to tear us apart.
Well I gave you the Midas touch,
Oh you turned round and scratched out my heart.

Oh what did you expect?
Oh tell me what did you expect?
To lay it on my head?
So is it all upon my head?

Bang, bang you're dead.
Oh I'm so easily lead.
Bang, bang you're dead.
Put all the rumours to bed.
Bang, bang you're dead.

I knew all along,
But I was loathe to believe,
There was nothing but spite,
Fury and lies,
Of the words that you weave.
An illusion to a conclusion,
And oh its oh so tawdry.
When you put it to bed,
Kick it in the head,
Oh wont they just let it be.

Bang bang you're dead.
Always so easily lead.
Bang bang youre dead.
Put all the rumours to bed.
Bang bang youre dead.

Oh what did you expect?
Oh tell me what did you expect?
To lay it on my head?
So is it all upon my head?

Bang, bang you're dead.
Always so easily lead.
Bang bang youre dead.
Put all the rumours to bed.
Bang, bang you're dead.
Bang, bang
Bang, bang you're dead,
Oh you're dead.
Suggest correction
Creating personal tab
Creating personal tab
You can edit any tab online and save it as your Personal.

You can edit, replace or remove any tab part or add personal notes – all changes will be seen only by you.

Personal tabs can be accessed anytime from any device, even offline.
Learn more »
comments
print report bad tab
1 comment total.
0 reply
libertines4ever 648 Sep 01, 2009 10:26 AM

good changes on carls solos

guest
You may want to rate the tab now too:
select rating
Wanna post a correction for this tab? Suggest correction