Oops, an error
Loading. Please wait.

Come Closer tab

1,802 views 1 this week
no commentswrite comment
1 2 3 4 5
1 last vote to show rating
add to favorites
×
Save as Personal and add changes to this tab that will be seen only by you. Learn more ›
×
You can save this tab as Personal to edit and correct it or add notes. All changes will be seen only by you. Learn more »
launch autoscroll
font size
0
reset
how to read this tab
guitar tuner
edit
Autoscroll
slow
fast
+/-
esc
set tempo
stop
Author
Difficulty
    Dirty Pretty Things
        Come Closer
Barat/Rossomando/Hammond/Powell

Guitar 1: Carl Barat (Carl) Lead Acoustic
Guitar 2: Anthony Rossomando (Stan) Lead Electric
Gutiar 3: Anthony Rossomando (OD) Lead Electric

Intro:

Carl:

e-2-
B-1-
G-2-
D---
A---
E---

Verse 1:

Carl:
      Hails to...      like cancer.   We need...          to you.
e-3-3-3------------------------2-2-2--3-------------------2-2-2-2-|
B-0-0-0----------------1--1-1--3-3-3--0-------------------3-3-3-3-|
G-0-0-0-------0--------2--2-2--2-2-2--0---------1-1-1-1-0-2-2-2-2-|
D-0-0-0---------0----2----------------0---0-----2-2-2-2-2---------|
A-2-2-2-----2------3------------------2---2-----2-2-2-2-3---------|
E-3-3-3---3---------------------------3---3-2-2-0-0-0-0-----------|
  Well the...        one and only.   If you...            to you.
e-3---------------------2-2--2-2-2---3--------------0---2-2-2-2-2-|
B-0------------1--1--1--3-3--3-3-3---0--------------1---3-3-3-3-3-|
G-0--0---------2--2--2--2-2--2-2-2---0--------1-1-1-0---2-2-2-2-2-|
D-0--2-2-------2--2--2---------------0--------2-2-2-2-------------|
A-2--3-3-2-0---0--0--0---------------2--2-----2-2-2-3-------------|
E-3----------------------------------3--3-2-2-0-0-0---------------|

Chorus:

Carl:
* come..   closer...   closer... low.
e-3-3-3---0-0-0-0--0-0-0-0-0--2-2-2-2--|
B-0-0-0---0-0-0-0--1-1-1-1-1--3-3-3-3--|
G-0-0-0---1-1-1-1--0-0-0-0-0--2-2-2-2--|
D-0-0-0---2-2-2-2--2-2-2-2-2--0-0-0-0--|
A-2-2-2---2-2-2-2--3-3-3-3-3-----------|
E-3-3-3-2-0-0-0-0----------------------|
  come..   closer...   closer... low.
e-3-3-3---0-0-0-0--0-0-0-0-0--2-2-2-2--|
B-0-0-0---0-0-0-0--1-1-1-1-1--3-3-3-3--|
G-0-0-0---1-1-1-1--0-0-0-0-0--2-2-2-2--|
D-0-0-0---2-2-2-2--2-2-2-2-2--0-0-0-0--|
A-2-2-2---2-2-2-2--3-3-3-3-3-----------|
E-3-3-3-2-0-0-0-0----------------------|

Stan:
*
e-15-14-12-10-------------------------------|
B-------------13-12-8-10-8-10---------------|
G-----------------------------11--7-7-7-9-7-|
D-------------------------------------------|
A-------------------------------------------|
E-------------------------------------------|

e-15-14-12-10-------------------------------|
B-------------13-12-8-10-8-10---------------|
G-----------------------------11--7-7-7-9-7-|
D-------------------------------------------|
A-------------------------------------------|
E-------------------------------------------|

OD:
*
e-3-3-3---0-0-0-0--0-0-0-0-0--2-2-2-2--|
B-0-0-0---0-0-0-0--1-1-1-1-1--3-3-3-3--|
G-0-0-0---1-1-1-1--0-0-0-0-0--2-2-2-2--|
D-0-0-0---2-2-2-2--2-2-2-2-2--0-0-0-0--|
A-2-2-2---2-2-2-2--3-3-3-3-3-----------|
E-3-3-3-2-0-0-0-0----------------------|

e-3-3-3---0-0-0-0--0-0-0-0-0--2-2-2-2--|
B-0-0-0---0-0-0-0--1-1-1-1-1--3-3-3-3--|
G-0-0-0---1-1-1-1--0-0-0-0-0--2-2-2-2--|
D-0-0-0---2-2-2-2--2-2-2-2-2--0-0-0-0--|
A-2-2-2---2-2-2-2--3-3-3-3-3-----------|
E-3-3-3-2-0-0-0-0----------------------|

Post-Chorus

Stan:
*
e-------------------------------|
B-------------------------------|
G-2--3--5--3--2-----------------|
D-------------------------------|
A-----------------2--3--5--3--2-|
E-------------------------------|

OD:
*
e-------------------------------|
B-------------------------------|
G-2--3--5--3--2-----------------|
D-------------------------------|
A-----------------2--3--5--3--2-|
E-------------------------------|

Verse 2:

Carl:
* Had love...                   back to me.
e-3-3-3-3-0-0-0-0-----0-0-0-0-0--2-2-2-2-2--|
B-0-0-0-0-1-1-1-1-----1-1-1-1-1--3-3-3-3-3--|
G-0-0-0-0-0-0-0-0-----2-2-2-2-2--2-2-2-2-2--|
D-0-0-0-0-2-2-2-2-----2-2-2-2-2--0-0-0-0-0--|
A-2-2-2-2-3-3-3-3-2-2-0---------------------|
E-3-3-3-3-----------------------------------|
 The skies...                    for you.
e-3-3-3-3---0-0-0-0-0--0-0-0-0-0--2-2-2-2-2-|
B-0-0-0-0---0-0-0-0-0--1-1-1-1-1--3-3-3-3-3-|
G-0-0-0-0---1-1-1-1-1--0-0-0-0-0--2-2-2-2-2-|
D-0-0-0-0---2-2-2-2-2--2-2-2-2-2--0-0-0-0-0-|
A-2-2-2-2---2-2-2-2-2--3-3-3-3-3------------|
E-3-3-3-3-2-0-0-0-0-0-----------------------|

Stan:
*
e-3-3-3------------------------2-2-2-|
B-0-0-0----------------1--1-1--3-3-3-|
G-0-0-0-------0--------2--2-2--2-2-2-|
D-0-0-0---------0----2---------------|
A-2-2-2-----2------3-----------------|
E-3-3-3---3--------------------------|

e-3-------------------2-2-2-2-|
B-0-------------------3-3-3-3-|
G-0---------1-1-1-1-0-2-2-2-2-|
D-0---0-----2-2-2-2-2---------|
A-2---2-----2-2-2-2-3---------|
E-3---3-2-2-0-0-0-0-----------|

Chorus:

Carl:
* come..   closer...   closer... low.
e-3-3-3---0-0-0-0--0-0-0-0-0--2-2-2-2--|
B-0-0-0---0-0-0-0--1-1-1-1-1--3-3-3-3--|
G-0-0-0---1-1-1-1--0-0-0-0-0--2-2-2-2--|
D-0-0-0---2-2-2-2--2-2-2-2-2--0-0-0-0--|
A-2-2-2---2-2-2-2--3-3-3-3-3-----------|
E-3-3-3-2-0-0-0-0----------------------|
 Dont..  you're...  bother...   go.
e-3-3-3---0-0-0-0--0-0-0-0-0--2-2-2-2--|
B-0-0-0---0-0-0-0--1-1-1-1-1--3-3-3-3--|
G-0-0-0---1-1-1-1--0-0-0-0-0--2-2-2-2--|
D-0-0-0---2-2-2-2--2-2-2-2-2--0-0-0-0--|
A-2-2-2---2-2-2-2--3-3-3-3-3-----------|
E-3-3-3-2-0-0-0-0----------------------|

Stan:
*
e-15-14-12-10-------------------------------|
B-------------13-12-8-10-8-10---------------|
G-----------------------------11--7-7-7-9-7-|
D-------------------------------------------|
A-------------------------------------------|
E-------------------------------------------|

e-15-14-12-10-------------------------------|
B-------------13-12-8-10-8-10---------------|
G-----------------------------11--7-7-7-9-7-|
D-------------------------------------------|
A-------------------------------------------|
E-------------------------------------------|

OD:
*
e-3-3-3---0-0-0-0--0-0-0-0-0--2-2-2-2--|
B-0-0-0---0-0-0-0--1-1-1-1-1--3-3-3-3--|
G-0-0-0---1-1-1-1--0-0-0-0-0--2-2-2-2--|
D-0-0-0---2-2-2-2--2-2-2-2-2--0-0-0-0--|
A-2-2-2---2-2-2-2--3-3-3-3-3-----------|
E-3-3-3-2-0-0-0-0----------------------|

e-3-3-3---0-0-0-0--0-0-0-0-0--2-2-2-2--|
B-0-0-0---0-0-0-0--1-1-1-1-1--3-3-3-3--|
G-0-0-0---1-1-1-1--0-0-0-0-0--2-2-2-2--|
D-0-0-0---2-2-2-2--2-2-2-2-2--0-0-0-0--|
A-2-2-2---2-2-2-2--3-3-3-3-3-----------|
E-3-3-3-2-0-0-0-0----------------------|

Post-Chorus

Stan:
*
e-------------------------------|
B-------------------------------|
G-2--3--5--3--2-----------------|
D-------------------------------|
A-----------------2--3--5--3--2-|
E-------------------------------|

OD:
*
e-------------------------------|
B-------------------------------|
G-2--3--5--3--2-----------------|
D-------------------------------|
A-----------------2--3--5--3--2-|
E-------------------------------|

Bridge:

Carl:
* Hit the piper...          I won't mind...
e-1-1-1-1-1-1-1-1-1-1-1-1--0-0-0-0-0-0-0-0-0-0-0-0-|
B-1-1-1-1-1-1-1-1-1-1-1-1--1-1-1-1-1-1-1-1-1-1-1-1-|
G-2-2-2-2-2-2-2-2-2-2-2-2--0-0-0-0-0-0-0-0-0-0-0-0-|
D-3-3-3-3-3-3-3-3-3-3-3-3--2-2-2-2-2-2-2-2-2-2-2-2-|
A-3-3-3-3-3-3-3-3-3-3-3-3--3-3-3-3-3-3-3-3-3-3-3-3-|
E-1-1-1-1-1-1-1-1-1-1-1-1--------------------------|
  smash the compass...       we'll be fine.
e-1-1-1-1-1-1-1-1-1-1-1-1--0-0-0-0-0-0-5-5-5-5-5-5-|
B-1-1-1-1-1-1-1-1-1-1-1-1--1-1-1-1-1-1-6-6-6-6-6-6-|
G-2-2-2-2-2-2-2-2-2-2-2-2--0-0-0-0-0-0-0-0-0-0-0-0-|
D-3-3-3-3-3-3-3-3-3-3-3-3--2-2-2-2-2-2-7-7-7-7-7-7-|
A-3-3-3-3-3-3-3-3-3-3-3-3--3-3-3-3-3-3-7-7-7-7-7-7-|
E-1-1-1-1-1-1-1-1-1-1-1-1--------------5-5-5-5-5-5-|
 love...   able...  write...  grave.
e-5-5-5-5--5-5-5-5--5-5-5-5--5-5-5--5-5-5--5-5-5-|
B-5-5-5-5--7-7-7-7--5-5-5-5--7-7-7--7-7-7--6-6-6-|
G-6-6-6-6--7-7-7-7--6-6-6-6--7-7-7--7-7-7--7-7-7-|
D-7-7-7-7--7-7-7-7--7-7-7-7--7-7-7--7-7-7--7-7-7-|
A-7-7-7-7--5-5-5-5--7-7-7-7--5-5-5--5-5-5--5-5-5-|
E-5-5-5-5-----------5-5-5-5----------------------|

Stan:
*
e-1-1-1-1-1-1-1-1-1-1-1-1--0-0-0-0-0-0-0-0-0-0-0-0-|
B-1-1-1-1-1-1-1-1-1-1-1-1--1-1-1-1-1-1-1-1-1-1-1-1-|
G-2-2-2-2-2-2-2-2-2-2-2-2--0-0-0-0-0-0-0-0-0-0-0-0-|
D-3-3-3-3-3-3-3-3-3-3-3-3--2-2-2-2-2-2-2-2-2-2-2-2-|
A-3-3-3-3-3-3-3-3-3-3-3-3--3-3-3-3-3-3-3-3-3-3-3-3-|
E-1-1-1-1-1-1-1-1-1-1-1-1--------------------------|

e-1-1-1-1-1-1-1-1-1-1-1-1--0-0-0-0-0-0-0-0-0-0-0-0-|
B-1-1-1-1-1-1-1-1-1-1-1-1--1-1-1-1-1-1-1-1-1-1-1-1-|
G-2-2-2-2-2-2-2-2-2-2-2-2--0-0-0-0-0-0-0-0-0-0-0-0-|
D-3-3-3-3-3-3-3-3-3-3-3-3--2-2-2-2-2-2-2-2-2-2-2-2-|
A-3-3-3-3-3-3-3-3-3-3-3-3--3-3-3-3-3-3-3-3-3-3-3-3-|
E-1-1-1-1-1-1-1-1-1-1-1-1--------------------------|

e-5-5-5-5-5-5--5-5-5-5--5-5-5-5--5-5-5-5--5-5-5--5-5-5--5-5-5-|
B-5-5-5-5-5-5--5-5-5-5--7-7-7-7--5-5-5-5--7-7-7--7-7-7--6-6-6-|
G-6-6-6-6-6-6--6-6-6-6--7-7-7-7--6-6-6-6--7-7-7--7-7-7--7-7-7-|
D-7-7-7-7-7-7--7-7-7-7--7-7-7-7--7-7-7-7--7-7-7--7-7-7--7-7-7-|
A-7-7-7-7-7-7--7-7-7-7--5-5-5-5--7-7-7-7--5-5-5--5-5-5--5-5-5-|
E-5-5-5-5-5-5--5-5-5-5-----------5-5-5-5----------------------|

OD:
*
e-1-1-1-1-1-1-1-1-1-1-1-1--0-0-0-0-0-0-0-0-0-0-0-0-|
B-1-1-1-1-1-1-1-1-1-1-1-1--1-1-1-1-1-1-1-1-1-1-1-1-|
G-2-2-2-2-2-2-2-2-2-2-2-2--0-0-0-0-0-0-0-0-0-0-0-0-|
D-3-3-3-3-3-3-3-3-3-3-3-3--2-2-2-2-2-2-2-2-2-2-2-2-|
A-3-3-3-3-3-3-3-3-3-3-3-3--3-3-3-3-3-3-3-3-3-3-3-3-|
E-1-1-1-1-1-1-1-1-1-1-1-1--------------------------|

e-1-1-1-1-1-1-1-1-1-1-1-1--0-0-0-0-0-0-0-0-0-0-0-0-|
B-1-1-1-1-1-1-1-1-1-1-1-1--1-1-1-1-1-1-1-1-1-1-1-1-|
G-2-2-2-2-2-2-2-2-2-2-2-2--0-0-0-0-0-0-0-0-0-0-0-0-|
D-3-3-3-3-3-3-3-3-3-3-3-3--2-2-2-2-2-2-2-2-2-2-2-2-|
A-3-3-3-3-3-3-3-3-3-3-3-3--3-3-3-3-3-3-3-3-3-3-3-3-|
E-1-1-1-1-1-1-1-1-1-1-1-1--------------------------|

e-5-5-5-5-5-5--5-5-5-5--5-5-5-5--5-5-5-5--5-5-5--5-5-5--5-5-5-|
B-5-5-5-5-5-5--5-5-5-5--7-7-7-7--5-5-5-5--7-7-7--7-7-7--6-6-6-|
G-6-6-6-6-6-6--6-6-6-6--7-7-7-7--6-6-6-6--7-7-7--7-7-7--7-7-7-|
D-7-7-7-7-7-7--7-7-7-7--7-7-7-7--7-7-7-7--7-7-7--7-7-7--7-7-7-|
A-7-7-7-7-7-7--7-7-7-7--5-5-5-5--7-7-7-7--5-5-5--5-5-5--5-5-5-|
E-5-5-5-5-5-5--5-5-5-5-----------5-5-5-5----------------------|

Chorus:

Chorus:

Carl:
* come..   closer...   closer... low.
e-3-3-3---0-0-0-0--0-0-0-0-0--2-2-2-2--|
B-0-0-0---0-0-0-0--1-1-1-1-1--3-3-3-3--|
G-0-0-0---1-1-1-1--0-0-0-0-0--2-2-2-2--|
D-0-0-0---2-2-2-2--2-2-2-2-2--0-0-0-0--|
A-2-2-2---2-2-2-2--3-3-3-3-3-----------|
E-3-3-3-2-0-0-0-0----------------------|
 Dont..  you're...  bother...   go.
e-3-3-3---0-0-0-0--0-0-0-0-0--2-2-2-2--|
B-0-0-0---0-0-0-0--1-1-1-1-1--3-3-3-3--|
G-0-0-0---1-1-1-1--0-0-0-0-0--2-2-2-2--|
D-0-0-0---2-2-2-2--2-2-2-2-2--0-0-0-0--|
A-2-2-2---2-2-2-2--3-3-3-3-3-----------|
E-3-3-3-2-0-0-0-0----------------------|

Stan:
*
e-15-14-12-10-------------------------------|
B-------------13-12-8-10-8-10---------------|
G-----------------------------11--7-7-7-9-7-|
D-------------------------------------------|
A-------------------------------------------|
E-------------------------------------------|

e-15-14-12-10-------------------------------|
B-------------13-12-8-10-8-10---------------|
G-----------------------------11--7-7-7-9-7-|
D-------------------------------------------|
A-------------------------------------------|
E-------------------------------------------|

OD:
*
e-3-3-3---0-0-0-0--0-0-0-0-0--2-2-2-2--|
B-0-0-0---0-0-0-0--1-1-1-1-1--3-3-3-3--|
G-0-0-0---1-1-1-1--0-0-0-0-0--2-2-2-2--|
D-0-0-0---2-2-2-2--2-2-2-2-2--0-0-0-0--|
A-2-2-2---2-2-2-2--3-3-3-3-3-----------|
E-3-3-3-2-0-0-0-0----------------------|

e-3-3-3---0-0-0-0--0-0-0-0-0--2-2-2-2--|
B-0-0-0---0-0-0-0--1-1-1-1-1--3-3-3-3--|
G-0-0-0---1-1-1-1--0-0-0-0-0--2-2-2-2--|
D-0-0-0---2-2-2-2--2-2-2-2-2--0-0-0-0--|
A-2-2-2---2-2-2-2--3-3-3-3-3-----------|
E-3-3-3-2-0-0-0-0----------------------|

Outro:

Stan:
*
e-------------------------------|
B-------------------------------|
G-2--3--5--3--2-----------------|
D-------------------------------|
A-----------------2--3--5--3--2-|
E-------------------------------|

OD:
*
e-------------------------------|
B-------------------------------|
G-2--3--5--3--2-----------------|
D-------------------------------|
A-----------------2--3--5--3--2-|
E-------------------------------|

            
            
Suggest correction
Creating personal tab
Creating personal tab
You can edit any tab online and save it as your Personal.

You can edit, replace or remove any tab part or add personal notes – all changes will be seen only by you.

Personal tabs can be accessed anytime from any device, even offline.
Learn more »
Give kudos to tab author, rate the tab!
1 2 3 4 5
comments
print report bad tab
guest
You may want to rate the tab now too:
select rating
Wanna post a correction for this tab? Suggest correction