Oops, an error
Loading. Please wait.

Deadwood tab

version 1
version 1

Whole song

9,431 views 6 this week
3 commentsread comments
1 2 3 4 5
x 7
add to favorites
×
Save as Personal and add changes to this tab that will be seen only by you. Learn more ›
×
You can save this tab as Personal to edit and correct it or add notes. All changes will be seen only by you. Learn more »
launch autoscroll
font size
0
reset
how to read this tab
guitar tuner
edit
Autoscroll
slow
fast
+/-
esc
set tempo
stop
Author
Tabbed by Jack Steadman

This is a tab from the track Deadwood by Dirty Pretty Things. It is the first track on 
debut album ‘Waterloo to Anywhere’.

Listen to the song to get the rhythm an that

Chords
 EADGBe
Dm      (x57765)
A       (577655)
F       (133211)
Gm      (355333)
C       (x35553)
F2    (x81010108)

Intro –

E|-1-1-1-1-1-1-1-1-3-3-3-5-5-5-5-5-5-5-5-5-----|
B|-3-3-3-3-1-1-1-1-3-3-3-5-5-5-5-5-5-5-5-5-----|
G|---------------------------6-6-6-6-6-6-6-6-6-|
D|---------------------------7-7-7-7-7-7-7-7-7-|
A|---------------------------7-7-7-7-7-7-7-7-7-|
E|---------------------------5-5-5-5-5-5-5-5-5-|

Verses

Dm
You got the world boy
This all you make it?
F
You had the choice lad
You wouldnt take it
Gm
The oldest charm
Only the best for you
Dm
And the years of my life,
Some they were so good,
F
But now and again I feel
I was a coward
Gm
Are the holes in my soul
                          A
In tatters for all these tears
Well you dont see it that way
Chorus

Dm
A way, a way
We’ll have it today
F
The dancing ones they really mean it
Gm
But something boy,
                   A
somethings gonna change

Little solo thing

Play this twice after every chorus

Dmx4
E|----------------------------------------------------|
B|----------------------------------------------------|
G|----2s14---13s14-13s14------------------------------|
D|----0s12---11s12-11s12------------------------------|
A|----------------------------------------------------|
E|----------------------------------------------------|

Fx4
E|----------------------------------------------------|
B|----------------------------------------------------|
G|----2s14---13s14-13s14------------------------------|
D|----3s15---14s15-14s15------------------------------|
A|----------------------------------------------------|
E|----------------------------------------------------|

Bridge

F2 x 6
C  x 6
F2 x 6
C  x 6
A  x 16

Song Structure

Intro
Verse
Chorus
Solo   x 2
Verse
Chorus
Bridge
Chorus
Solo   x 2
Outro (After playing solo play end of bridge i.e thrash out A and then end on Dm)

If you have any questions or whatever, my email is general_smuts@hotmail.co.uk. God bless Carlos Barat.
Suggest correction
Creating personal tab
Creating personal tab
You can edit any tab online and save it as your Personal.

You can edit, replace or remove any tab part or add personal notes – all changes will be seen only by you.

Personal tabs can be accessed anytime from any device, even offline.
Learn more »
comments
print report bad tab
3 comments total.
0 reply
YouKnowsItSpa 10 Jul 30, 2006 11:50 AM

Can anyone help me out please? I don't understand the F2 chord that is used. Are you saying that I basically need a 8 String guitar to play it, or does it mean somehthing else? Help would be appreciated. Thanks

0 reply
general_smuts 70 Aug 01, 2006 11:57 AM

its 10 as in ten, so 8 ten ten ten 8

+1 reply
Von-Bing 125 Aug 02, 2007 05:41 AM

nice

guest
You may want to rate the tab now too:
select rating
Wanna post a correction for this tab? Suggest correction