Oops, an error
Loading. Please wait.

Deadwood bass

version 2
version 2

Whole song

2,503 views 9 this week
no commentswrite comment
1 2 3 4 5
1 last vote to show rating
add to favorites
×
Save as Personal and add changes to this tab that will be seen only by you. Learn more ›
×
You can save this tab as Personal to edit and correct it or add notes. All changes will be seen only by you. Learn more »
launch autoscroll
font size
0
reset
guitar tuner
edit
Autoscroll
slow
fast
+/-
esc
set tempo
stop
Difficulty
Title: Deadwood
Artist: Dirty Pretty Things
Album: Waterloo To Anywhere

Key: /= Hammer-On
/// Slide Up
\\\ Slide Down
Standard Tuning

Intro x1
G---------------------------------------|
B----------------------------5/7---5/7--|
A---------------------------------------|
E---------------------------------------|

Main Riff x4

G-------------------------------------------------------------------------|
B-------------------------------------------------------------------------|
A--5-5-5-5-5-5-5--3-------------------------------------------------------|
E----------------------1-1-1-1-1-1--2--3-3-3-3-3-3--4--5-5-5--5--3--1--0--|

Break x1
G-----------------------------------------------------------------------------------------------|
B---------- -3-0--0--3-0--0-----------3-0--0--3-0--0--------------------------------------------|
A--5-5-5-5-----3--------3---5-5-5-5-----3--------3-------5---3----------------------------------|
E--------------------------------------------------------------------1---2-3---4-5-5-5-5-3-1-0--|

Main Riff x4

2nd Break / Solo x1

G-------------------------------------5----------------------------------------|
B--3-3-3--3-3-3-3--------------------7-3--3-3--3-3--3--5-----------------------|
A-------------------3-3-3--3-3-3-3---------------------------7-3--3-3--3-3--3--|
E------------------------------------------------------------------------------|

G--5--------------------------------------------5-------------------------------------|
B---7-3--3-3--3-3--3--5------------------------7-3--3-3--3-3--3--5--------------------|
A--------------------------7-3--3-3--3-3--3---------------------------7-3--33--33--3--|
E-------------------------------------------------------------------------------------|

G---------------------------------|
B--7-7-7--7-7-7-7-7--7-7-7-7-\\\--|
A---------------------------------|
E---------------------------------|

Main Riff x2

Outro  x1
G-----------------------------------------------------------------------------------------------|
B---------- -3-0--0--3-0--0-----------3-0--0--3-0--0---7-7-7—7-7-7-7--7-7-7--7-7-7-7------------|
A--5-5-5-5-----3--------3---5-5-5-5-----3--------3-------------------------------------------5--|
E-----------------------------------------------------------------------------------------------|
Suggest correction
Creating personal tab
Creating personal tab
You can edit any tab online and save it as your Personal.

You can edit, replace or remove any tab part or add personal notes – all changes will be seen only by you.

Personal tabs can be accessed anytime from any device, even offline.
Learn more »
Give kudos to tab author, rate the tab!
1 2 3 4 5
comments
print report bad tab
guest
Wanna post a correction for this tab? Suggest correction